Ojays - For The Love Of Money Chords & Tabs

 

For The Love Of Money Chords & Tabs

Ojays Chords & Tabs

Version: 1 Type: Tab 0 ratings
1 star 2 stars 3 stars 4 stars 5 stars
comments

For The Love Of Money Tab

This is the Theme song on The Apprentice. This is my first tab and its simple.

Artist: The O'Jays
Song: For The Love of Money
Tabber: Dennis Throckmorton

The Main Riff
[ Tab from: http://www.guitartabs.cc/tabs/o/ojays/for_the_love_of_money_tab.html ]
e-------------------------------------------------------|
B-------------------------------------------------------|
G-------------------------------------------------------|
D-------------------------------------------------------|
A-------------------------------------------------------|
E-0-0-12-12-10-10-9/10-9/10-9/10-9/10-10-10-12----------|

If you want a rock sound out of this song you can use power chords like this.

e-------------------------------------------------------|
B-------------------------------------------------------|
G-------------------------------------------------------|
D-----9-9-7-7-6/7-6/7-6/7-6/7-7-7-9---------------------|
A-2-2-7-7-5-5-4/5-4/5-4/5-4/5-5-5-7---------------------|
E-0-0---------------------------------------------------|
Comments