Oi Scouts - War Is Sick Chords & Tabs

 

War Is Sick Chords & Tabs

Oi Scouts Chords & Tabs

Version: 1 Type: Tab 0 ratings
1 star 2 stars 3 stars 4 stars 5 stars
comments

War Is Sick Tab

------------------------
--pmassico@hotmail.com--
------------------------

    The oi! scouts
    *War is sick*

------------------------------------------------------------|
------------------------------------------------------------|
-22222222-5555-4444-22222222-10101010-9999------------------|
-22222222-5555-4444-22222222-10101010-9999------------------|
-00000000-3333-2222-00000000- 8 8 8 8-7777------------------|
------------------------------------------------------------|

------------------------------------------------------------|
------------------------------------------------------------|
-22222222-5555-4444-22222222-5555-4444----------------------|
-22222222-5555-4444-22222222-5555-4444----------------------|  x2
-00000000-3333-2222-00000000-3333-2222----------------------|
------------------------------------------------------------|

------------------------------------------------------------|
------------------------------------------------------------|
10101010-12121212-6-777-------------------------------------|
10101010-12121212-6-777-------------------------------------|  x5
 8 8 8 8-10101010-4-555-------------------------------------|
------------------------------------------------------------|

------------------------------------------------------------|
------------------------------------------------------------|
10101010-12121212-1414141414--------------------------------|
10101010-12121212-1414141414--------------------------------|
 8 8 8 8-10101010-1212121212--------------------------------|
------------------------------------------------------------|

------------------------------------------------------------|
------------------------------------------------------------|
-22222222-5555-4444-22222222-10101010-9999------------------|
-22222222-5555-4444-22222222-10101010-9999------------------|
-00000000-3333-2222-00000000- 8 8 8 8-7777------------------|
------------------------------------------------------------|

------------------------------------------------------------|
------------------------------------------------------------|
-22222222-5555-4444-22222222-5555-4444----------------------|
-22222222-5555-4444-22222222-5555-4444----------------------|  x2
-00000000-3333-2222-00000000-3333-2222----------------------|
------------------------------------------------------------|
[ Tab from: http://www.guitartabs.cc/tabs/o/oi_scouts/war_is_sick_tab.html ]
------------------------------------------------------------|
------------------------------------------------------------|
10101010-12121212-6-777-------------------------------------|
10101010-12121212-6-777-------------------------------------|  x5
 8 8 8 8-10101010-4-555-------------------------------------|
------------------------------------------------------------|

------------------------------------------------------------|
------------------------------------------------------------|
10101010-12121212-1414141414--------------------------------|
10101010-12121212-1414141414--------------------------------|
 8 8 8 8-10101010-1212121212--------------------------------|
------------------------------------------------------------|

------------------------------------------------------------|
------------------------------------------------------------|
----------9----77777777-5555--------------------------------|
-77777777-9-10-77777777-5555-5555-77777777------------------|  x4
-77777777-7-10-55555555-3333-5555-77777777------------------|
-55555555--- 8---------------3333-55555555------------------|

------------------------------------------------------------|
------------------------------------------------------------|
10101010-12121212-6-777-------------------------------------|
10101010-12121212-6-777-------------------------------------|  x5
 8 8 8 8-10101010-4-555-------------------------------------|
------------------------------------------------------------|

------------------------------------------------------------|
------------------------------------------------------------|
10101010-12121212-1414141414--------------------------------|
10101010-12121212-1414141414--------------------------------|
 8 8 8 8-10101010-1212121212--------------------------------|
------------------------------------------------------------|

------------------------------------------------------------|
------------------------------------------------------------|
-22222222-5555-4444-----------------------------------------|
-22222222-5555-4444-----------------------------------------|  x3
-00000000-3333-2222-----------------------------------------|
------------------------------------------------------------|

------------------------------------------------------------|
------------------------------------------------------------|
-22222222-10101010-9999-------------------------------------|
-22222222-10101010-9999-------------------------------------|
-00000000- 8 8 8 8-7777-------------------------------------|
------------------------------------------------------------|


                           WAR IS SICK ! ! !
Comments