Oi Scouts - Thugs Chords & Tabs

 

Thugs Chords & Tabs

Oi Scouts Chords & Tabs

Version: 1 Type: Tab

Thugs Tab

Song: Thugs
Artist: Oi! Scouts
Album: Boots For The Beatdown

TABBED BY: Carlos
E-MAIL: DEATHNDESTRUCTION@SBCGLOBAL.NET
REVISED BY: Taylor


INTRO (bass plays the main riff, the guitar just accents the firs B)
E---------------------|
B---------------------|
G---------------------|
D-4-------4-----------|
A-2-------2-----------|
E---------------------|

INTRO 2
E---------------------------|
B---------------------------|
G---------------------------|
D-4-4-4-4-4-4-4-4-----7-----|
A-2-2-2-2-2-2-2-2-4-7-5-7---|
E-----------------2-5---5---|
PM...............

Verse
E---------------------------|
B---------------------------|
G---------------------------|
D-4-4-4-4-4-4-4-4-----7-----|
A-2-2-2-2-2-2-2-2-4-7-5-7---|
E-----------------2-5---5---|
[ Tab from: http://www.guitartabs.cc/tabs/o/oi_scouts/thugs_tab.html ]
CHORUS
E-------------------------------------------------------------------|
B-------------------------------------------------------------------|
G-------------------------------------------------------------------|
D-7-7-7-7-------------------------7-7-7-7---------4-4-4-4-4-4-4-4---|
A-5-5-5-5-7-7-7-7-9-9-9-9-9-9-9-9-5-5-5-5-4-4-4-4-2-2-2-2-2-2-2-2---|
E---------5-5-5-5-7-7-7-7-7-7-7-7---------2-2-2-2-------------------|

SOLO
E---------------------------------------------------------------------------|
B---------------------------------------------------------------------------|
G-------------------------9^9^9^----------------------------9^-9p7-9^9^9^9^-|
D-9-7---7-9-7---7-9-7---7---------9-7---7-9-7---7-9-7---7-------------------|
A-----9-------9-------9---------------9-------9-------9---------------------|
E---------------------------------------------------------------------------|

------------------------------------------------------------|
---7^---------9-9-7-7-------7^------------------------------|
-7----9-----5---------9-9-7----9-----5-9^-9p7-9^-9^-9^-9^---|
--------9-9----------------------9-9------------------------|
------------------------------------------------------------|
------------------------------------------------------------|

END