Oi Scouts - Oi Punx Chords & Tabs

 

Oi Punx Chords & Tabs

Oi Scouts Chords & Tabs

Version: 1 Type: Tab 0 ratings
1 star 2 stars 3 stars 4 stars 5 stars
comments

Oi Punx Tab

-------------------------------------------------------------------------------
                         Oi Scouts : Oi punx
-------------------------------------------------------------------------------

Tabbed by Casualtyvampire

this is my first tab so take it easy on me!

Intro
e|--------------------------------------------------------------------------|
B|--------------------------------------------------------------------------|
G|--------------------------------------------------------------------------|
D|-8-8-8-8-8>---------------------------------------------------------------|
A|-6-6-6-6-6>---------------------------------------------------------------|
E|--------------------------------------------------------------------------|
  One, two, one, two, three, Go!

Verse/Main Riff
e|--------------------------------------------------------------------------|
B|--------------------------------------------------------------------------|
G|--------------------------------------------------------------------------|
D|-8-8-8-8--3-3-3-3--10-10-10--12--13-13-13--10------------------------------|
A|-6-6-6-6--1-1-1-1--8--8--8---10--11-11-11--8-------------------------------|
E|--------------------------------------------------------------------------|
[ Tab from: http://www.guitartabs.cc/tabs/o/oi_scouts/oi_punx_tab.html ]
Chorus Part 1
e|--------------------------------------------------------------------------|
B|--------------------------------------------------------------------------|
G|--------------------------------------------------------------------------|
D|-8-8--5-5--3--5-5-5-5-----------------------------------------------------|
A|-6-6--3-3--1--3-3-3-3-----------------------------------------------------|
E|--------------------------------------------------------------------------|
Part 2
e|--------------------------------------------------------------------------|
B|--------------------------------------------------------------------------|
G|--------------------------------------------------------------------------|
D|-7/8-8-8-8--7/8-8-8-8-----------------------------------------------------|
A|-5/6-6-6-6--5/6-6-6-6-----------------------------------------------------|
E|--------------------------------------------------------------------------|

Bridge Part 1
e|--------------------------------------------------------------------------|
B|--------------------------------------------------------------------------|
G|--------------------------------------------------------------------------|
D|-13-13-13-13--6-6--8-8-8-8------------------------------------------------|
A|-11-11-11-11--4-4--6-6-6-6------------------------------------------------|
E|--------------------------------------------------------------------------|

Bridge Part 2
e|--------------------------------------------------------------------------|
B|--------------------------------------------------------------------------|
G|--------------------------------------------------------------------------|
D|-3-3-3-3-3>---------------------------------------------------------------|
A|-1-1-1-1-1>---------------------------------------------------------------|
E|--------------------------------------------------------------------------|
Structure

Intro
Verse x8
Chorus Part 1 x3
Chorus Part 2
Chorus Part 1 x3
Chorus Part 2
Verse x8
Chorus Part 1 x3
Chorus Part 2
Chorus Part 1 x3
Chorus Part 2
Bridge Part 1 x2
Bridge Part 2
Bridge Part 1 x2
Chorus Part 1 x3
Chrous Part 2 
Chorus Part 1 x3
Chorus Part 2
Chorus Part 1 x3
Comments