Oh Sleeper - Means To Believe Chords & Tabs

 

Means To Believe Chords & Tabs

Oh Sleeper Chords & Tabs

Version: 3 Type: Tab 0 ratings
1 star 2 stars 3 stars 4 stars 5 stars
comments

Means To Believe Tab

   
Oh sleeper - Means to believe                             tabs by Joe V.

Tuning:Drop D#

-E
-H
-G
-D
-A
-D#

Intro(2x):

-----------------------------------------------------------------------------|
------4-----4--------4-----4-------4--------4-----------4-------4------------|
-----------3-------------3---------------3-----------3--------3--------------|
----4----4---------4---4---------4----4-----------4--------4-----------------|
--2------------4-------------------------------------------------------------|
------------------------------0----------------0-----------------------------|


verse(2x):

-----------------------------------------------------------------------------|
------4-----4--------4-----4-------4--------4-----------4-------4------------|
-----------3-------------3---------------3-----------3--------3--------------|
----4----4---------4---4---------4----4-----------4--------4-----------------|
--2------------4-------------------------------------------------------------|
------------------------------0----------------0-----------------------------|


-----------------------------------------------------------------------------|
------4-----4--------4-----4-------4--------4-----------4-------4------------|
-----------3-------------3---------------3-----------3--------3--------------|
----4----4---------4---4---------4----4-----------4--------4-----------------|
--2------------4-------------------------------------------------------------|
------------------------------0----------------0-----------------------------|


-----------------------------------------------------------------------------|
------4-----4--------4-----4-------4--------4----------4-----4---------------|
-----------3-------------3---------------3-----------------3-----------------|
----4----4---------4---4---------4----4--------------4---4-------------------|
--2------------4----------------------------------4--------------------------|
------------------------------0----------------------------------------------|

[ Tab from: http://www.guitartabs.cc/tabs/o/oh_sleeper/means_to_believe_tab_ver_3.html ]
-----------------------------------------------------------------------------|
------4-----4--------4-----4-------------------------------------------------|
-----------3-------------3---------------------------------------------------|
----4----4---------4---4-----------------------------------------------------|
--2------------4-------------------------------------------------------------|
------------------------------0----------------------------------------------|


Refrain:

-----------------------------------------------------------------------------|
--4-4444-44---6-6666-66---4-4444-44---6-6666-66---4-4444-44---6-6666-66------|
--4-4444-44---6-6666-66---4-4444-44---6-6666-66---4-4444-44---6-6666-66------|
--4-4444-44---6-6666-66---4-4444-44---6-6666-66---4-4444-44---6-6666-66------|
--2-2222-22---4-4444-44---2-2222-22---4-4444-44---2-2222-22---4-4444-44------|
-----------------------------------------------------------------------------|

-----------------------|
--4--6--7----4--6--7---|
--4--6--8----4--6--8---|
--4--6--8----4--6--8---|
--2--4--6----2--4--6---|
-----------------------|

Verse(2x)

after the end of cecond part you have to play ending again:

-----------------------------------------------------------------------------|
------4-----4--------4-----4-------------------------------------------------|
-----------3-------------3---------------------------------------------------|
----4----4---------4---4-----------------------------------------------------|
--2------------4-------------------------------------------------------------|
------------------------------0----------------------------------------------|


Refrain(1x)

Outro:


"Will I embrace you... Will you ever give me the means to believe
-----------------------------------------|
--4--6-------------------------4--6--7---|
--4--6-------------------------4--6--8---|
--4--6-------------------------4--6--8---|
--2--4-------------------------2--4--6---|
-----------------------------------------|

Answer me, please...
---------------------------|
------4------4-------4-----|
-----------3---------------|
----4----4---------4-------|
--2--------------4---------|
---------------------------|




I wrote it through my hearing, so sorry about any mistakes if they are...
Comments