Ogie Alcasid - Kung Mawawala Ka Chords & Tabs

 

Kung Mawawala Ka Chords & Tabs

Ogie Alcasid Chords & Tabs

Version: 1 Type: Tab 0 ratings
1 star 2 stars 3 stars 4 stars 5 stars
comments

Kung Mawawala Ka Tab

   
Ogie Alcasid is a singer from Philippines

\/= slide back
h=  hammer-on


Intro


e|---------------------------------------------------------------------------|
B|-0-0-1-4-4---4h5-------5h7-5-4-4---4h5-----------5-5-----5-5---5h7---------|
G|----------------4---4------------------4---4-4-6-----6-6-----6-------------|
D|---------------------------------------------------------------------------|
A|---------------------------------------------------------------------------|
E|---------------------------------------------------------------------------|


e|---------------------------------------------------------------------------|
B|-7-7-5-4-7-5---------------------------------------------------------------|
G|---------------------------------------------------------------------------|
D|---------------------------------------------------------------------------|
A|---------------------------------------------------------------------------|
E|---------------------------------------------------------------------------|


e|---------------------------------------------------------------------------|
B|0----0-0---0-----0----------0---0-0---0------0-----------------------------|
G|--------------2-----2-0-0-----------------2-----2-0-0----------------------|
D|---------------------------------------------------------------------------|
A|---------------------------------------------------------------------------|
E|---------------------------------------------------------------------------|

[ Tab from: http://www.guitartabs.cc/tabs/o/ogie_alcasid/kung_mawawala_ka_tab.html ]
e|---------------------------------------------------------------------------|
B|-----3h5-5-5-5-3-0-1-3--5-----0-0-1-1-1-3-----5-5-5------------------------|
G|-0-0----------------------4-4-----------------------4--7-------------------|
D|---------------------------------------------------------------------------|
A|---------------------------------------------------------------------------|
E|---------------------------------------------------------------------------|

Chorus

e|---------------------------------------------------------------------------|
B|------------------------------8h10-8-7-7-------------8-8------8-8---8h10---|
G|-7-7--9---11-11-11h12--7---7-------------7---7-7--9------9--9-----9--------|
D|---------------------------------------------------------------------------|
A|---------------------------------------------------------------------------|
E|---------------------------------------------------------------------------|


e|---------------------------------------------------------------------------|
B|-10-10-8-\/7--7-10---8-----------------------------------------------------|
G|---------------------------------------------------------------------------|
D|---------------------------------------------------------------------------|
A|---------------------------------------------------------------------------|
E|---------------------------------------------------------------------------|


thats all folks. If you have any problem dont be shy to email me at
tgihs@sbcglobal.net of x_file214@yahoo.com..... By the way, if there's any
mistake, please check it and  dont tell 2 mew cause i dont need your correction.
thank you very much and god bless all Filipino.
Comments