Offspring - What Happened To You Chords & Tabs

 

What Happened To You Chords & Tabs

Offspring Chords & Tabs

Version: 5 Type: Tab 0 ratings
1 star 2 stars 3 stars 4 stars 5 stars
comments

What Happened To You Tab

#----------------------------------PLEASE NOTE--------------------------------#
#This file is the author's own work and represents their interpretation of the#
#song. You may only use this file for private study, scholarship, or research.#
#-----------------------------------------------------------------------------#
#-- File created with Instab - http://www.pconline.com/~smcarey/instab.html --#
#-----------------------------------------------------------------------------#

Author/Artist: offspring
Title: what happened to you solo
Album: smash
Transcribed by: dave cecconi
Email: dukebloodevils@aol.com

killer solo by noodles. listen to the cd for rhythm.
[ Tab from: http://www.guitartabs.cc/tabs/o/offspring/what_happened_to_you_tab_ver_5.html ]
-|----------------------------------------------------------------------------|
-|--------------------------------------------------8-------------------------|
-|---------5h7p5-7/9\7-5---5-7----------5h7p5-7/9-9---9-5---------------------|
-|-----5h7---------------7----------5h7---------------------------------------|
-|-5h7--------------------------5h7-------------------------------------------|
-|----------------------------------------------------------------------------|


-------------------------------------------10---------10-----13p10-13---------|
-------------------------------------10-13----13------------------------------|
-------------10h12p10-12/13\12-10-12------------------------------------------|
-------10h12------------------------------------------------------------------|
-10h12------------------------------------------------------------------------|
------------------------------------------------------------------------------|


--15p13--15/17-17--15-13---------|--------------------------------------------|
-------------------------15-13\--|--------------------------------------------|
---------------------------------|--------------------------------------------|
---------------------------------|--------------------------------------------|
---------------------------------|--------------------------------------------|
---------------------------------|--------------------------------------------|
                                *slide all the way up
Comments