Offspring - What Happened To You Chords & Tabs

 

What Happened To You Chords & Tabs

Offspring Chords & Tabs

Version: 3 Type: Tab 0 ratings
1 star 2 stars 3 stars 4 stars 5 stars
comments

What Happened To You Tab

#----------------------------------PLEASE NOTE---------------------------------#
#This file is the author's own work and represents their interpretation of the #
#song. You may only use this file for private study, scholarship, or research. #
#------------------------------------------------------------------------------##

Title : What Happened To You
Artist: The Offspring
Album : Smash, Track 11

Tab by: Alex Boschmann (boschmanna@web.de)

Tuning: Standart tuning (EADGBe)
Note  : There was no powerchord version of this
        awesome song on the site, so I made one.

Intro:
e -----------------------------------------
B -----------------------------------------
G ---------10---10---10----10-9-8----------
D --8-10---10-8-10-8-10-10-10-9-8----------
A --8-10----8-8--8-8--8-10--8-7-6----------
E --6--8------6----6-----8-----------------


Verse: (4x)
e -----------------------------------------
B -----------------------------------------
G --7------10------------------------------
D --7-8-10-10------------------------------
A --5-8-10--8------------------------------
E ----6--8---------------------------------


Chorus: (3x, then 1x Post Chorus)
e -----------------------------------------
B -----------------------------------------
G --7---10---------------------------------
D --7-8-10-10------------------------------
A --5-8--8-10------------------------------
E ----6-----8------------------------------

Post Chorus:
e -----------------------------------------
B -----------------------------------------
G ---------10---10---10----10-9-8----------
D --8-10---10-8-10-8-10-10-10-9-8----------
A --8-10----8-8--8-8--8-10--8-7-6----------
E --6--8------6----6-----8-----------------

[ Tab from: http://www.guitartabs.cc/tabs/o/offspring/what_happened_to_you_tab_ver_3.html ]
Solo:
e -----------------------------------------
B -----------------------------------------
G ----------5h7p5-7/97-5---5-7------------
D ------5h7---------------7----------------
A --5h7------------------------------------
E -----------------------------------------
                         

e -----------------------------------------
B ----------------------8------------------
G ----------5h7p5-7/9-9---9-5--------------
D ------5h7--------------------------------
A --5h7------------------------------------                                                     
E -----------------------------------------  


e -----------------------------------------
B -----------------------------------------
G --------------10h12p10-12/1312-10-12----
D --------10h12----------------------------
A --10h12----------------------------------
E -----------------------------------------
                                                                                  

e --------10------10---13p10-13---15p13----
B --10-13----13----------------------------
G -----------------------------------------
D -----------------------------------------
A -----------------------------------------
E -----------------------------------------

e --15/17-17--15-13------------------------
B ------------------15-13-----------------
G -----------------------------------------
D -----------------------------------------
A -----------------------------------------
E -----------------------------------------

Outro:
e -----------------------------------------
B -----------------------------------------
G ----10---10---10----10---10----10--------
D --8-10-8-10-8-10----10-8-10-10-10--------
A --8--8-8--8-8--8-----8-8--8-10--8--------
E --6----6----6----------6-----8-----------
Comments