Offspring - We Are One Chords & Tabs

 

We Are One Chords & Tabs

Offspring Chords & Tabs

Version: 2 Type: Tab 0 ratings
1 star 2 stars 3 stars 4 stars 5 stars
comments

We Are One Tab

         ---------------------------------------------------------------
                     We Are One - The Offspring
         ---------------------------------------------------------------



 * - p.m (palm mute)
 : - let ring
 . - pause



+ Guitars - 1st - Dexter Holland
            2nd - Noodles




+ Intro
e|-------------------------------|
B|-------------------------------|
G|--9:-12:-77777-666-7777--------|
D|--7:-10:-55555-444-5555--(x4)--|
A|-------------------------------|
E|-------------------------------|



+ Intro 2
e|----------------------------|
B|----------------------------|
G|--------55555-------77-5----|
D|--77777-55555-55555-77-5-5--|
A|--77777-33333-55555-55-3-5--|
E|--55555-------33333------3--|



e|-----------------------------|
B|-----------------------------|
G|--------55555-------77.-55.--|
D|--77777-55555-55555-77.-55.--|
A|--77777-33333-55555-55.-33.--|
E|--55555-------33333----------|



+ We are one with ourselves ...
e|----------------------------|
B|----------------------------|
G|--------55555-------77-5----|
D|--77777-55555-55555-77-5-5--|
A|--77777-33333-55555-55-3-5--|
E|--55555-------33333------3--|
    ************************


+ Well it won't be wrong ... 
e|-------------------------|
B|-------------------------|
G|--------55555----77-5----|
D|--77777-55555-5.-77-5-5--|
A|--77777-33333-5.-55-3-5--|
E|--55555-------3.------3--|
    *************


+ We are one! We are free! ...
e|---------------------------------|
B|---------------------------------|
G|--------55555-------77-5---------|
D|--77777-55555-55555-77-5-5-(x4)--|    # the third time with other distortion
A|--77777-33333-55555-55-3-5-------|
E|--55555-------33333------3-------|



+ we are one, you know it`s true ...  
e|----------------------------|
B|----------------------------|
G|--------55555-------77-5----|
D|--77777-55555-55555-77-5-5--|
A|--77777-33333-55555-55-3-5--|
E|--55555-------33333------3--|
    ************************


e|-------------------------|
B|-------------------------|
G|--------55555----77-5----|
D|--77777-55555-5.-77-5-5--|
A|--77777-33333-5.-55-3-5--|
E|--55555-------3.------3--|
    *************

[ Tab from: http://www.guitartabs.cc/tabs/o/offspring/we_are_one_tab_ver_2.html ]
+ We are one! We are free! ... 
e|---------------------------------|
B|---------------------------------|
G|--------55555-------77-5---------|
D|--77777-55555-55555-77-5-5-(x2)--|
A|--77777-33333-55555-55-3-5-------|
E|--55555-------33333------3-------|



e|-------------------------------------------|
B|-------------------------------------------|
G|--------55555-12121212-111111-121212-------|
D|--77777-55555-12121212-111111-121212-(x3)--|
A|--77777-33333-10101010--9-9-9-101010-------|
E|--55555------------------------------------|



e|--------------|------------------------------|
B|--------------|------------------------------|
G|--------55555-|-12121212-111111-121212-------|
D|--77777-55555-|-12121212-111111-121212-(x3)--|
A|--77777-33333-|-10101010--9-9-9-101010-------|
E|--55555-------|------------------------------|



e|---------------------------------|
B|---------------------------------|
G|--------55555-------77-5---------|
D|--77777-55555-55555-77-5-5-(x2)--|
A|--77777-33333-55555-55-3-5-------|
E|--55555-------33333------3-------|



+ we are one and it won't be news
e|----------------------------|
B|----------------------------|
G|--------55555-------77-5----|
D|--77777-55555-55555-77-5-5--|
A|--77777-33333-55555-55-3-5--|
E|--55555-------33333------3--|
    ************************


e|-------------------------|
B|-------------------------|
G|--------55555----77-5----|
D|--77777-55555-5.-77-5-5--|
A|--77777-33333-5.-55-3-5--|
E|--55555-------3.------3--|
    *************


+ We are one! We are free! ... 
e|---------------------------------|
B|---------------------------------|
G|--------55555-------77-5---------|
D|--77777-55555-55555-77-5-5-(x2)--|
A|--77777-33333-55555-55-3-5-------|
E|--55555-------33333------3-------|



e|-----------------------------------------|
B|-----------------------------------------|
G|--------1010101010-777777777-55----------|
D|--77777-1010101010-777777777-55-55-(x2)--|
A|--77777--8-8-8-8-8-555555555-33-55-------|
E|--55555-------------------------33-------|


+ Outro
e|---------------------------------------------------------|
B|---------------------------------------------------------|
G|--------1010101010-12121212-11111111-55------------------|
D|--77777-1010101010-12121212-11111111-55-55-till the end--|
A|--77777--8-8-8-8-8-10101010--9-9-9-9-33-55---------------|
E|--55555---------------------------------33---------------|




+ Tabber

+ Felipe Silva
+ Santiago, Chile
+ 15

+ pipe_@walla.com
Comments