Offspring - Want You Bad Chords & Tabs

 

Want You Bad Chords & Tabs

Offspring Chords & Tabs

Version: 9 Type: Tab 0 ratings
1 star 2 stars 3 stars 4 stars 5 stars
comments

Want You Bad Tab

offspring , want you bad.
Tabbed by Arctixx , Arctixx@hotmail.com.
  
From: Arctixx (arctixx@hotmail.com))
Group: Offspring
Album: Conspiracy Of One


pm - palm mute
/ \ - slide
hr - harmonic
: - let ring
x - scratch


intro / bridge 1 / outro

|----------------------------|
|----------------------------|
|-9-9-9-----------11-11-9-11-|
|-9-9-9-9-9-9-7-7-11-11-9-11-|
|-7-7-7-9-9-9-7-7-9--9--7-9--|
|-------7-7-7-5-5------------|

post intro / post chorus
   pm________________|
|---------------------------|
|---------------------------|
|-9-9-9-9-9-9-9-9-9-9-9-9-9-|
|-9-9-9-9-9-9-9-9-9-9-9-9-9-|
|-7-7-7-7-7-7-7-7-7-7-7-7-7-|
|---------------------------|

verse
   pm____________________|      |_____________________|       |______________|
|-------------------------------------------------------------------------------
|-------------------------------------------------------------------------------
|-9-9-9-9-9-9-9-9-9-9-9-9-9\----------------------------------------------------
|-9-9-9-9-9-9-9-9-9-9-9-9-9\-11-11-11-11-11-11-11-11-11-11\-9-9-9-9-9-9-9-9-9-9-
|-7-7-7-7-7-7-7-7-7-7-7-7-7\-11-11-11-11-11-11-11-11-11-11\-9-9-9-9-9-9-9-9-9-9-
|-----------------------------9--9--9--9--9--9--9--9--9--9\-7-7-7-7-7-7-7-7-7-7-

 ---------|
 ---------|
 ---------|
 -7-6-7-9-|
 -7-6-7-9-|
 -5-4-5-7-|

pre chorus

|------------------------------------------------------------------------------------------|
|------------------------------------------------------------------------------------------|
|-------------------------------------9-9-9-9-9--------------------------------------------|
|-7-7-7-7-7-9-9-9-9-9-11-11-11-11-11--9-9-9-9-9-7-7-7-7-7-9-9-9-9-9-11-11-11-11-11-9-x-x-x-|
|-7-7-7-7-7-9-9-9-9-9-11-11-11-11-11--7-7-7-7-7-7-7-7-7-7-9-9-9-9-9-11-11-11-11-11 9-x-x-x-|
|-5-5-5-5-5-7-7-7-7-7--9--9--9--9--9------------5-5-5-5-5-7-7-7-7-7--9--9--9--9--9-7-x-x-x-|

chorus
[ Tab from: http://www.guitartabs.cc/tabs/o/offspring/want_you_bad_tab_ver_9.html ]
|-------------------------------------------------------------------------------
|-------------------------------------------------------------------------------
|-9-9-9-9-9-9-9-9-9-9-9-9-9----------------------------------------------------
|-9-9-9-9-9-9-9-9-9-9-9-9-911-11-11-11-11-11-11-11-11-11-9-9-9-9-9-9-9-9-9-9-
|-7-7-7-7-7-7-7-7-7-7-7-7-711-11-11-11-11-11-11-11-11-11-9-9-9-9-9-9-9-9-9-9-
|---------------------------9--9--9--9--9--9--9--9--9-9--7-7-7-7-7-7-7-7-7-7-

 -------------------------|
 -------------------------|
 -------------------------|
 -7-7-7-6-6-6-7-7-7-9-9-9-| 
 -7-7-7-6-6-6-7-7-7-9-9-9-|
 -5-5-5-4-4-4-5-5-5-7-7-7-|

bridge 2 
                     clean
|------7hr---------7hr-----------------------------------------|
|-----------7hr------------------------------------------------|
|--------------------------------9:------------------9:--------|
|-9:-------------------9:---7:---9:---9:---9:---7:---9:---9:---|
|-9:-------------------9:---7:---7:---9:---9:---7:---7:---9:---|
|-7:-------------------7:---5:--------7:---7:---5:--------7:---|

riff

|---------------------------------------------------------------------------------
|---------------------------------------------------------------------------------
|---------------------------------------------------------------------------------
|---------------------------------------------------2-2-2-2-2-1-1-1-1-1-1-1-1-1-1-
|-6-6-6-6-6-6-6-6-6-6-4-4-4-4-4-4-4-4-4-4-2-2-2-2-2-------------------------------
|---------------------------------------------------------------------------------

 -------------------------------------------------------------|
 -------------------------------------------------------------|
 -------------------------------------------------------------|
 ---------------------2-2-2-2-2-4-4-4-4-4-6-6-6-6-6-9-9-9-9-9-|
 -4-4-4-4-4-4-4-4-4-4-----------------------------------------|
 -------------------------------------------------------------|

There you go! Its a great song and its not too hard! ENJOY!

Sorry if there are any mistakes! IF you do find any please let me know!

Arctixx


 
:: Ultimate Guitar Archive :: 
http://www.ultimate-guitar.com 

Comments