Offspring - Want You Bad Chords & Tabs

 

Want You Bad Chords & Tabs

Offspring Chords & Tabs

Version: 5 Type: Tab 0 ratings
1 star 2 stars 3 stars 4 stars 5 stars
comments

Want You Bad Tab

Song: Want you Bad
Artist: Offspring
Album: The Conspiracy of One
Tabbed by: Kevin Visser (lotus09@hotmail.com)


This is pretty accurate, im not so sure about Fig. 7 but the chords sound right, it sounds good to me so enjoy.
First of all this is the order
Intro(x4)                                          Key
Fig.1                               scratch- x
Fig.2                                palm mute- *
Fig.3                               natural harmonics- +
Fig.2
Fig.4
Fig.5
Fig.6(x2)
Fig.4
Fig.1
Fig.2
Fig.3
Fig.2
Fig.4
Fig.5
Fig.6(x2)
Fig.4
Intro(x4)
Fig.7
Fig.8
Fig.6(x2)
Fig.4
Intro(x4)

Intro
E---------------------------------------|
B---------------------------------------|
G---9-9-x-------------------------------|
D---9-9-x---9-9-x---7-7-x---6-6-x----9--|
A---7-7-x---9-9-x---7-7-x---6-6-x----9--|
E-----------7-7-x---5-5-x---4-4-x----7--|

Fig.1     * * * * * * * * * * * * * * * *  
E-----------------------------------------------------------|
B-----------------------------------------------------------|
G---9-9---9-9-9-9-9-9-9-9-9-9-9-9-9-9-9-9---9-9-9-9-9-9-9-9-|
D---9-9---9-9-9-9-9-9-9-9-9-9-9-9-9-9-9-9---9-9-9-9-9-9-9-9-|
A---7-7---7-7-7-7-7-7-7-7-7-7-7-7-7-7-7-7---7-7-7-7-7-7-7-7-|
E------------------------------------------------------------------------|

Fig.2     * * * * * * * * * * * *          * * * * * * * * * * * *          * * * * * * * * * * * *   
E---------------------------------------------------------------------------------------------------|
B---------------------------------------------------------------------------------------------------|
G---9-9---9-9-9-9-9-9-9-9-9-9-9-9----7-7---7-7-7-7-7-7-7-7-7-7-7-7----5-5---5-5-5-5-5-5-5-5-5-5-5-5-|
D---9-9---9-9-9-9-9-9-9-9-9-9-9-9----7-7---7-7-7-7-7-7-7-7-7-7-7-7----5-5---5-5-5-5-5-5-5-5-5-5-5-5-|
A---7-7---7-7-7-7-7-7-7-7-7-7-7-7----5-5---5-5-5-5-5-5-5-5-5-5-5-5----3-3---3-3-3-3-3-3-3-3-3-3-3-3-|
E---------------------------------------------------------------------------------------------------|
Fig.3
E----------------------------|
B----------------------------|
G----------------------------|
D---7-7----6-6----7-7----9-9-|
A---7-7----6-6----7-7----9-9-|
E---5-5----4-4----5-5----7-7-|

Fig.4* *      * *       * *       * *             
E-----------------------------------------|
B-----------------------------------------|
G-----------------------------------------|
D---7-7---7---6-6---6---7-7---7---9-9---9-|
A---7-7---7---6-6---6---7-7---7---9-9---9-|
E---5-5---5---4-4---4---5-5---5---7-7---7-|
[ Tab from: http://www.guitartabs.cc/tabs/o/offspring/want_you_bad_tab_ver_5.html ]
Fig.5
E-------------------------------------------------------------------------------------------------|
B-------------------------------------------------------------------------------------------------|
G----------------------------6-6-6-6-6---9-9-9-9-9---------------------------6-6-6-6-6---4-x-x-x--|
D---7-7-7-7-7---9-9-9-9-9----6-6-6-6-6---9-9-9-9-9---7-7-7-7-7---9-9-9-9-9---6-6-6-6-6---4-x-x-x--|
A---7-7-7-7-7---9-9-9-9-9----4-4-4-4-4---7-7-7-7-7---7-7-7-7-7---9-9-9-9-9---4-4-4-4-4---2-x-x-x--|
E---5-5-5-5-5---7-7-7-7-7----------------------------5-5-5-5-5---7-7-7-7-7------------------------|

Fig.6
E------------------------------------------------------------------------------------------------------|
B------------------------------------------------------------------------------------------------------|
G---9-9-9-9-9-9-9-9-9-9-9-9--7-7-7-7-7-7-7-7-7-7-7-7--4-4-4-4-4-4-4-4-4-4-4-4--------------------------|
D---9-9-9-9-9-9-9-9-9-9-9-9--7-7-7-7-7-7-7-7-7-7-7-7--4-4-4-4-4-4-4-4-4-4-4-4--7-7-7-6-6-6-7-7-7-9-9-9-|
A---7-7-7-7-7-7-7-7-7-7-7-7--5-5-5-5-5-5-5-5-5-5-5-5--2-2-2-2-2-2-2-2-2-2-2-2--7-7-7-6-6-6-7-7-7-9-9-9-|
E------------------------------------------------------------------------------5-5-5-4-4-4-5-5-5-7-7-7-|

Fig.7    +  +  +
E--------7-----7-----------------------------------|
B-----------7--------------------------------------|
G---2---------------4-------9---4---4-------9---4--|
D---2---------------4---7---9---4---4---7---9---4--|
A---0---------------2---7---7---2---2---7---7---2--|
E-----------------------5---------------5----------|

Fig.8
E-------------------------------------------------------------------------------------------|
B-------------------------------------------------------------------------------------------|
G-------------------------------------------------------------------------------------------|
D-----------------------------------------------------------2-2-2-2-2---1-1-1-1-1-1-1-1-1-1-|
A---6-6-6-6-6-6-6-6-6-6---4-4-4-4-4-4-4-4-4-4---2-2-2-2-2-----------------------------------|
E-------------------------------------------------------------------------------------------|

E------------------------------------------------------------------------|
B------------------------------------------------------------------------|
G------------------------------------------------------------------------|
D-------------------------2-2-2-2-2---4-4-4-4-4----6-6-6-6-6---9-9-9-9-9-|
A---4-4-4-4-4-4-4-4-4-4--------------------------------------------------|
E------------------------------------------------------------------------|
That’s all, its all there, I think its all accurate but im not sure about figure 7 but it sounds pretty good.
Any questions or corrections please e-mail me at lotus09@hotmail.com
Comments