Offspring - Want You Bad Chords & Tabs

 

Want You Bad Chords & Tabs

Offspring Chords & Tabs

Version: 2 Type: Tab 0 ratings
1 star 2 stars 3 stars 4 stars 5 stars
comments

Want You Bad Tab

----------------------------------------------------------
Note:
X = scratch
x = harmonic/mute note. Either way works.
/ = slide
yo this is the best tab ever!!



: = let ring
pm= palm mute


song structure:
Intro   4x
riff1   1x
riff2   2x
solo1   2x
bridge1 1x
chorus  2x
riff1   1x
bridge2 1x
riff2   2x
solo1   2x
bridge1 1x
chorus  2x
intro   4x
solo2   2x
riff3   1x
chorus  2x
Intro   4x
End on last chord of Intro

Intro:
e|-----------------------------------------------
B|-----------------------------------------------
G|-9---------------------------------------------
D|-9-9-9-9--11-11-7-7-9-9-9----------------------
A|-7-9-9-9--11-11-7-7-9-9-9----------------------
E|---7-7-7--9--9--5-7-7-7-7----------------------

Riff1:
     * * * *  * *  (* = 4x)
e|-----------------------------------------------
B|-----------------------------------------------
G|-9---------------------------------------------
D|-9-9-9-9-9--9-9--------------------------------
A|-7-9-9-9-9--9-9--------------------------------
E|---7-7-7-7--7-7--------------------------------
pm   .......

riff2:
     *     *       * (* = 12) 
e|-----------------------------------------------
B|-----------------------------------------------
G|-9-9-9-----------------------------------------
D|-9-9-9-9-9-9-11-11-11-7-7-7-6-6-6-9-9-9-7-7-7--
A|-7-7-7-9-9-9-11-11-11-7-7-7-6-6-6-9-9-9-7-7-7--
E|-------7-7-7--9--9--9-5-5-5-4-4-4-7-7-7-5-5-5--
pm   .     .      ..    ...   ...   ...   ...
                  |__________________________|
                   Play theese with pm only second time!
[ Tab from: http://www.guitartabs.cc/tabs/o/offspring/want_you_bad_tab_ver_2.html ]
solo:(might be errors)
e|-----------------------------------------------
B|-----------------------------------------------
G|-7-7-777---------------------------------------
D|---------9-9-999-5-5-555-7-7-777---------------
A|-----------------------------------------------
E|-----------------------------------------------

Bridge:
                     * (* = 9x)
e|-----------------------------------------------
B|-----------------------------------------------
G|-9-9-9-9-9--5-5-5--5X--------------------------
D|-9-9-9-9-9--5-5-5--5X--------------------------
A|-7-7-7-7-7--5-5-5--5X--------------------------
E|-----------------------------------------------
pm                   ..

Chorus("I love you.." etc etc)
     *     *       * (* = 12) No PM first time!
e|-----------------------------------------------
B|-----------------------------------------------
G|-9-9-9-----------------------------------------
D|-9-9-9-9-9-9-11-11-11-7-7-7-6-6-6-9-9-9-7-7-7--
A|-7-7-7-9-9-9-11-11-11-7-7-7-6-6-6-9-9-9-7-7-7--
E|-------7-7-7--9--9--9-5-5-5-4-4-4-7-7-7-5-5-5--
pm                ..    ...   ...   ...   ...

Bridge2:
e|--------
B|--------
G|--------
D|-9/7r0--
A|--------
E|--------

solo 2:(Effects are used.Might have errors)
e|----------------------
B|---------7:-9:-8:-9:--
G|-9:------8:-7:-9:-8:--
D|-9:------9:-8:-7:-7:--
A|-7:-------------------
E|----------------------
           |_________|
           second time, play only theese.

riff3: Strum all chords ~8x
e|-------------------------
B|-------------------------
G|-9-----------9-11-13-14--
D|-x-9-11-7-7--x--x--x--x--
A|-7-x--x-x-x--7--9-11-12--
E|---7--9-5-5--------------
----------------------------------------------------------
Comments