Offspring - Want You Bad Chords & Tabs

 

Want You Bad Chords & Tabs

Offspring Chords & Tabs

Version: 1 Type: Tab 2 ratings
1 star 2 stars 3 stars 4 stars 5 stars
comments

Want You Bad Tab

Song: Want You Bad
Artist: The Offspring
Tabbed By: Chris Bromley aka stonecold719	

Notes: This is my first tab ever by just listening to the song and made all by myself. I didn't write out
how many times you got to strum the chords and the timing but im sure you'll figure it out. If
you have any questions and timing or something, email me at stone_cold719@hotmail.com. I would also like
to point out that this is an absolutely amazing song so have fun and enjoy!


here it is:
First off, the whole song is played with distortion.

Intro:
e----------------
b----------------
g--9--x--x--x---x
d--9--9--7--11--9
a--7--9--7--11--9
e--x--7--5--9---7



Verses (It is played with palm muting):
e----------------------
b----------------------
g--9--x---x--x--x--x--x
d--9--11--9--7--6--7--9
a--7--11--9--7--6--7--9
e--x--9---7--5--4--5--7


[ Tab from: http://www.guitartabs.cc/tabs/o/offspring/want_you_bad_tab.html ]
Pre-chorus:
e-------------------------x
b-------------------------x
g--x--x--x---9--x--x--x---x
d--7--9--11--9--7--9--11--x
a--7--9--11--7--7--9--11--x
e--5--7--9---x--5--7--9---x



Chorus:
This is played exactly like the verse except no palm muting (but im sure you could've figured it out)



Bridge:
(When he says "Don't get me wrong ...")
strum each chord once

e----------
b----------
g--x--9--x-    Play 2x
d--9--9--11
a--9--7--11
e--7--x--9-


Bridge Part 2
(When he yells "GO!")

e------------
b------------
g--x--x--x--9
d--9--7--2--9   Play 2x
a--9--7--2--7
e--7--5--0--x

then at that last chord it continues on to this:

e---------------
b---------------
g--9--11--13--12
d--9--11--13--14
a--7--9---11--14
e--x--x---x---x-

This is the whole song. Sounds perfect. Again, if you have questions or comments, don't hesitate to
email me.
Comments