Offspring - Walla Walla Chords & Tabs

 

Walla Walla Chords & Tabs

Offspring Chords & Tabs

Version: 4 Type: Tab 0 ratings
1 star 2 stars 3 stars 4 stars 5 stars
comments

Walla Walla Tab

   
Song:      "Walla Walla"
Band:      "The Offspring"
Album:     "Americana"


Part 1:

    1  +  2  +  3  +  4  +  1  +  2  +  3  +  4  +  
e' ------------------------------------------------
b  ------------------------------------------------
g  -------------------------5--5--5--5--5--5--5--5-
d  -3--3--3--3--3--3--3--3--5--5--5--5--5--5--5--5-
A  -3--3--3--3--3--3--3--3--3--3--3--3--3--3--3--3-
E  -1--1--1--1--1--1--1--1-------------------------
    \palm muted__________________________________/


    1  +  2  +  3  +  4  +  1  +  2  +  3  +  4  +  
e' ------------------------------------------------
b  ------------------------------------------------
g  -------------------------5--5--5--5--5--5--5--5-
d  -5--5--5--5--5--5--5--5--5--5--5--5--5--5--5--5-
A  -5--5--5--5--5--5--5--5--3--3--3--3--3--3--3--3-
E  -3--3--3--3--3--3--3--3-------------------------
    \palm muted__________________________________/


    1  +  2  +  3  +  4  +  1  +  2  +  3  +  4  +  
e' ------------------------------------------------
b  ------------------------------------------------
g  -------------------------5--5--5--5--5--5--5--5-
d  -3--3--3--3--3--3--3--3--5--5--5--5--5--5--5--5-
A  -3--3--3--3--3--3--3--3--3--3--3--3--3--3--3--3-
E  -1--1--1--1--1--1--1--1-------------------------
    \palm muted__________________________________/


    1  +  2  +  3  +  4  +  1  +  2  +  3  +  4  +  
e' ------------------------------------------------
b  ------------------------------------------------
g  -------------------------5--R--5--R--5-----6----
d  -5--5--5--5--5--5--5--5--5--R--5--R--5-----6----
A  -5--5--5--5--5--5--5--5--3--R--3--R--3-----4----
E  -3--3--3--3--3--3--3--3-------------------------
    \palm muted__________/



Part 1a:

    1  +  2  +  3  +  4  +  1  +  2  +  3  +  4  +  
e' ------------------------------------------------
b  ------------------------------------------------
g  -------------------------5--5--5--5--5--5--5--5-
d  -3--3--3--3--3--3--3--3--5--5--5--5--5--5--5--5-
A  -3--3--3--3--3--3--3--3--3--3--3--3--3--3--3--3-
E  -1--1--1--1--1--1--1--1-------------------------
    \palm muted__________________________________/


    1  +  2  +  3  +  4  +  1  +  2  +  3  +  4  +  
e' ------------------------------------------------
b  ------------------------------------------------
g  -------------------------5--5--5--5--5--5--5--5-
d  -5--5--5--5--5--5--5--5--5--5--5--5--5--5--5--5-
A  -5--5--5--5--5--5--5--5--3--3--3--3--3--3--3--3-
E  -3--3--3--3--3--3--3--3-------------------------
    \palm muted__________________________________/


    1  +  2  +  3  +  4  +  1  +  2  +  3  +  4  +  
e' ------------------------------------------------
b  ------------------------------------------------
g  -------------------------5--5--5--5--5--5--5--5-
d  -3--3--3--3--3--3--3--3--5--5--5--5--5--5--5--5-
A  -3--3--3--3--3--3--3--3--3--3--3--3--3--3--3--3-
E  -1--1--1--1--1--1--1--1-------------------------
    \palm muted__________________________________/


    1  +  2  +  3  +  4  +  1  +  2  +  3  +  4  +  
e' ------------------------------------------------
b  ------------------------------------------------
g  -------------------------5--R--5--R--5-----\----
d  -5--5--5--5--5--5--5--5--5--R--5--R--5-----\----
A  -5--5--5--5--5--5--5--5--3--R--3--R--3-----\----
E  -3--3--3--3--3--3--3--3-------------------------
    \palm muted__________/



Part 1b:


    1     +     2     +     3     +     4     + 

e' -------------------1-----------1-----1-----1----
b  -------------------1-----------1-----1-----1----
g  -------------------2-----------2-----2-----2----
d  -3-----3-----3--3--3-----------3-----3-----3----
A  -3-----3-----3--3--3-----------3-----3-----3----
E  -1-----1-----1--1--1-----------1-----1-----1----
    \palm muted____/


    1     +     2     +     3     +     4     + 

e' -------------------0-----------0-----0-----0----
b  -1-----1-----1--1--1-----------1-----1-----1----
g  -0-----0-----0--0--0-----------0-----0-----0----
d  -x-----x-----x--x--2-----------2-----2-----2----
A  -3-----3-----3--3--3-----------3-----3-----3----
E  ------------------------------------------------
    \palm muted____/


    1     +     2     +     3     +     4     + 

e' -------------------3-----------3-----3-----3----
b  -------------------3-----------3-----3-----3----
g  -0-----0-----0--0--0-----------0-----0-----0----
d  -0-----0-----0--0--0-----------0-----0-----0----
A  -x-----x-----x--x--2-----------2-----2-----2----
E  -3-----3-----3--3--3-----------3-----3-----3----
    \palm muted____/


    1     +     2     +     3     +     4     + 

e' -------------------0-----------0-----0-----0----
b  -1-----1-----1--1--1-----------1-----1-----1----
g  -0-----0-----0--0--0-----------0-----0-----0----
d  -x-----x-----x--x--2-----------2-----2-----2----
A  -3-----3-----3--3--3-----------3-----3-----3----
E  ------------------------------------------------
    \palm muted____/


    1     +     2     +     3     +     4     + 

e' -------------------1-----------1-----1-----1----
b  -------------------1-----------1-----1-----1----
g  -------------------2-----------2-----2-----2----
d  -3-----3-----3--3--3-----------3-----3-----3----
A  -3-----3-----3--3--3-----------3-----3-----3----
E  -1-----1-----1--1--1-----------1-----1-----1----
    \palm muted____/


    1     +     2     +     3     +     4     + 

e' -------------------0-----------0-----0-----0----
b  -1-----1-----1--1--1-----------1-----1-----1----
g  -0-----0-----0--0--0-----------0-----0-----0----
d  -x-----x-----x--x--2-----------2-----2-----2----
A  -3-----3-----3--3--3-----------3-----3-----3----
E  ------------------------------------------------
    \palm muted____/


    1     +     2     +     3     +     4     + 

e' -------------------3-----------3-----3-----3----
b  -------------------3-----------3-----3-----3----
g  -0-----0-----0--0--0-----------0-----0-----0----
d  -0-----0-----0--0--0-----------0-----0-----0----
A  -x-----x-----x--x--2-----------2-----2-----2----
E  -3-----3-----3--3--3-----------3-----3-----3----
    \palm muted____/



    1  +  2  +  3  +  4  +  1  +  2  +  3  +  4  +
[ Tab from: http://www.guitartabs.cc/tabs/o/offspring/walla_walla_tab_ver_4.html ]
e' ------------------------------------------------
b  ------------------------------------------------
g  -5--R--5--R--5--R--5--R--5--R--5--R--5-----6----
d  -5--R--5--R--5--R--5--R--5--R--5--R--5-----6----
A  -3--R--3--R--3--R--3--R--3--R--3--R--3-----4----
E  ------------------------------------------------



Part 2:

    1  +  2  +  3  +  4  +  1  +  2  +  3  +  4  +
e' ------------------------------------------------
b  ------------------------------------------------
g  -7--7--7--7--7--7--7--7--7--7--7--7--7--7--9--9-
d  -7--7--7--7--7--7--7--7--7--7--7--7--7--7--9--9-
A  -5--5--5--5--5--5--5--5--5--5--5--5--5--5--7--7-
E  ------------------------------------------------


    1  +  2  +  3  +  4  +  1  +  2  +  3  +  4  +  
e' ------------------------------------------------
b  ------------------------------------------------
g  10-10-10-10-10-10-10-10-10-10-10-10-10-10-10-10-
d  10-10-10-10-10-10-10-10-10-10-10-10-10-10-10-10-
A  -8--8--8--8--8--8--8--8--8--8--8--8--8--8--8--8-
E  ------------------------------------------------


    1  +  2  +  3  +  4  +  1  +  2  +  3  +  4  +  
e' ------------------------------------------------
b  ------------------------------------------------
g  -5--5--5--5--5--5--5--5--5--5--5--5--5--5--5--5-
d  -5--5--5--5--5--5--5--5--5--5--5--5--5--5--5--5-
A  -3--3--3--3--3--3--3--3--3--3--3--3--3--3--3--3-
E  ------------------------------------------------


    1  +  2  +  3  +  4  +  1  +  2  +  3  +  4  +  
e' ------------------------------------------------
b  ------------------------------------------------
g  ------------------------------------------------
d  -5--5--5--5--5--5--5--5--5--5--5--5--5--5--5--5-
A  -5--5--5--5--5--5--5--5--5--5--5--5--5--5--5--5-
E  -3--3--3--3--3--3--3--3--3--3--3--3--3--3--3--3-


    1  +  2  +  3  +  4  +  1  +  2  +  3  +  4  +
e' ------------------------------------------------
b  ------------------------------------------------
g  -7--R--7--R--7--R--7--R--7--R--7--R--7--R--9--R-
d  -7--R--7--R--7--R--7--R--7--R--7--R--7--R--9--R-
A  -5--R--5--R--5--R--5--R--5--R--5--R--5--R--7--R-
E  ------------------------------------------------


    1  +  2  +  3  +  4  +  1  +  2  +  3  +  4  +  
e' ------------------------------------------------
b  ------------------------------------------------
g  10--R-10--R-10--R-10--R-10--R-10--R-10--R-10--R-
d  10--R-10--R-10--R-10--R-10--R-10--R-10--R-10--R-
A  -8--R--8--R--8--R--8--R--8--R--8--R--8--R--8--R-
E  ------------------------------------------------


    1  +  2  +  3  +  4  +  1  +  2  +  3  +  4  +  
e' ------------------------------------------------
b  ------------------------------------------------
g  -5--5--5--5--5--5--5--5--5--5--5--5--5--5--5--5-
d  -5--5--5--5--5--5--5--5--5--5--5--5--5--5--5--5-
A  -3--3--3--3--3--3--3--3--3--3--3--3--3--3--3--3-
E  ------------------------------------------------


    1  +  2  +  3  +  4  +  1  +  2  +  3  +  4  +  
e' ------------------------------------------------
b  ------------------------------------------------
g  ------------------------------------------------
d  -5--5--5--5--5--5--5--5--5--5--5--5--5--5--5--5-
A  -5--5--5--5--5--5--5--5--5--5--5--5--5--5--5--5-
E  -3--3--3--3--3--3--3--3--3--3--3--3--3--3--3--3-


Part 3:

    1  +  2  +  3  +  4  +  1  +  2  +  3  +  4  +
e' ------------------------------------------------
b  ------------------------------------------------
g  10-10-10-10-10-10-10-10--5--5--5--5--5--5--5--5-
d  10-10-10-10-10-10-10-10--5--5--5--5--5--5--5--5-
A  -8--8--8--8--8--8--8--8--3--3--3--3--3--3--3--3-
E  ------------------------------------------------


    1  +  2  +  3  +  4  +  1  +  2  +  3  +  4  +  
e' ------------------------------------------------
b  ------------------------------------------------
g  -------------------------5--5--5--5--5--5--5--5-
d  -5--5--5--5--5--5--5--5--5--5--5--5--5--5--5--5-
A  -5--5--5--5--5--5--5--5--3--3--3--3--3--3--3--3-
E  -3--3--3--3--3--3--3--3-------------------------


    1  +  2  +  3  +  4  +  1  +  2  +  3  +  4  +
e' ------------------------------------------------
b  ------------------------------------------------
g  10-10-10-10-10-10-10-10--5--5--5--5--5--5--5--5-
d  10-10-10-10-10-10-10-10--5--5--5--5--5--5--5--5-
A  -8--8--8--8--8--8--8--8--3--3--3--3--3--3--3--3-
E  ------------------------------------------------


    1  +  2  +  3  +  4  +  1  +  2  +  3  +  4  +  
e' ------------------------------------------------
b  ------------------------------------------------
g  -------------------------5--R--5--R--5-----\----
d  -5--5--5--5--5--5--5--5--5--R--5--R--5-----\----
A  -5--5--5--5--5--5--5--5--3--R--3--R--3-----\----
E  -3--3--3--3--3--3--3--3-------------------------


Intro-Riff: This Riff's played over Part 3.

            (Tabbed by Bad5ervice@aol.com)

    1  +  2  +  3  +  4  +  1  +  2  +  3  +  4  +  
e' ------------------------------------------------
b  ------------------------------------------------
g  ------------------------------------------------
d  -3--3-----3--3--3--2--0-------------------------
A  -------------------------3--3-----3--3--3--2--0-
E  ------------------------------------------------

    1  +  2  +  3  +  4  +  1  +  2  +  3  +  4  +  
e' ------------------------------------------------
b  ------------------------------------------------
g  ------------------------------------------------
d  -------------------------------------------0--2-
A  -------------------0--2--3--3-----3--3--3-------
E  -3--3-----3--3--3-------------------------------

    1  +  2  +  3  +  4  +  1  +  2  +  3  +  4  +  
e' ------------------------------------------------
b  ------------------------------------------------
g  ------------------------------------------------
d  -3--3-----3/-5--3--2--0-------------------------
A  -------------------------3--3-----3--3--3--2--0-
E  ------------------------------------------------

    1  +  2  +  3  +  4  +  1  +  2  +  3  +  4  +  
e' ------------------------------------------------
b  ------------------------------------------------
g  -------------------------5--R--5--R--5-----\----
d  -------------------------5--R--5--R--5-----\----
A  -------------------0--2--3--R--3--R--3-----\----
E  -3--3-----3--3--3-------------------------------

Song structure:

Part 3

Part 1a
Part 1
Part 2
Part 3

Part 1
Part 2
Part 3

Part 1a
Part 1b
Part 2
Part 3

Comments