Offspring - Walla Walla Chords & Tabs

 

Walla Walla Chords & Tabs

Offspring Chords & Tabs

Version: 2 Type: Tab 0 ratings
1 star 2 stars 3 stars 4 stars 5 stars
comments

Walla Walla Tab

   
#----------------------------------PLEASE NOTE---------------------------------#
#This file is the author's own work and represents their interpretation of the #
#song. You may only use this file for private study, scholarship, or research. #
#------------------------------------------------------------------------------#

Band: The Offspring
Song: Walla Walla (Track 8)
Album: Americana


This is how it works...


Lead Guitar

Rhythm Guitar

Bass

And all the stuff I have to say about the Tab and the song. 
Crap at the bottom pretty much, have fun... oh! And, the key...

Key:
* = Palm Muted
/ = Slide
^ = Hammer-on (There's only one...)
()= Notes you can hit if you want... :)



Lead Guitar - Lead Distortion... hehehe, I kill myself... not really, but... I'll shut up.


Beginning

1.... and 2.... and 3.... and 4.... and(x4)

Intro (0:06.5)
e|---------------------------------------------------------------------------------------------------------|
B|---------------------------------------------------------------------------------------------------------|
G|------------------------------------------------------------------------------------------------(5)-5--5-|
D|-3-3--3-33-2-0---------------------------------------0-2-3-3--3-5-32----------------------------(5)-5--5-|
A|---------------3-3--3-33-2-0-----------0-2-3-3--3-33-----------------3-3--3-33-2-0-----------0-2-3--3--3-|
E|-----------------------------3-3--3-33---------------------------------------------3-3--3-33-------------|

Verse (0:17)
e|---------------------------------------------------------------------------------------|
B|---------------------------------------------------------------------------------------|
G|-5--555-555----------------------------------5--555-555------------------------5--5--5-|
D|-3--333-333-5--555-555------------5--555-555-3--333-333-5--555-555-------------5--5--5-|
A|------------3--333-333-5--555-555-3--333-333------------3--333-333-5--555-555--3--3--3-|
E|-----------------------3--333-333----------------------------------3--333-333----------|
   *  *** *** *  *** *** *  *** *** *  *** *** *  *** *** *  *** *** *  *** ***

e|-------------------------------------------------------------------------------------------|
B|-------------------------------------------------------------------------------------------|
G|-5--555-555----------------------------------5--555-555------------------------5--5--5-6/7-|
D|-3--333-333-5--555-555------------5--555-555-3--333-333-5--555-555-------------5--5--5-6/7-|
A|------------3--333-333-5--555-555-3--333-333------------3--333-333-5--555-555--3--3--3-4/5-|
E|-----------------------3--333-333----------------------------------3--333-333--------------|
   *  *** *** *  *** *** *  *** *** *  *** *** *  *** *** *  *** *** *  *** ***        (Walk into Chorus)

Chorus (0:40)
e|----------------------------------------------------------------|
B|----------------------------------------------------------------|
G|-777777777777777-9/1010101010101010101010101010101010-----------|
D|-777777777777777-9/1010101010101010101010101010101010-----------|
A|-555555555555555-7/8-8-8-8-8-8-8-8-8-8-8-8-8-8-8-8-8------------|
E|----------------------------------------------------------------|

e|------------------------------------------------------------------------------|
B|------------------------------------------------------------------------------|
G|-55555555555555555------------------(7-7-7-7-7-7-7-9-10-10-10-10-10-10-10-10)-|
D|-5555555555555555555555555555555555--7-7-7-7-7-7-7-9-10-10-10-10-10-10-10-10--|
A|-3333333333333333355555555555555555--5-5-5-5-5-5-5-7-8--8--8--8--8--8--8--8---|
E|------------------33333333333333333-------------------------------------------|

e|-(3~)--------------------------(3~)------------------------------|
B|-(5~)--------------------------(3~)------------------------------|
G|--5~---------------------------(4~)------------------------------|
D|--5~----------------------------5~-------------------------------|
A|--3~----------------------------5~-------------------------------|
E|--------------------------------3~-------------------------------|

Guitar Solo (I Guess...) (1:02)
e|---------------------------------------------------------------------------------------------------------|
B|---------------------------------------------------------------------------------------------------------|
G|------------------------------------------------------------------------------------------------(5)-5--5-|
D|-3-3--3-33-2-0---------------------------------------0-2-3-3--3-5-32----------------------------(5)-5--5-|
A|---------------3-3--3-33-2-0-----------0-2-3-3--3-33-----------------3-3--3-33-2-0-----------0-2-3--3--3-|
E|-----------------------------3-3--3-33---------------------------------------------3-3--3-33-------------|

Verse (1:12)
e|-------------------------------------------------------------------------------------------|
B|-------------------------------------------------------------------------------------------|
G|-5--555-555----------------------------------5--555-555------------------------5--5--5-6/7-|
D|-3--333-333-5--555-555------------5--555-555-3--333-333-5--555-555-------------5--5--5-6/7-|
A|------------3--333-333-5--555-555-3--333-333------------3--333-333-5--555-555--3--3--3-4/5-|
E|-----------------------3--333-333----------------------------------3--333-333--------------|
   *  *** *** *  *** *** *  *** *** *  *** *** *  *** *** *  *** *** *  *** ***        (Walk into Chorus)

Chorus (1:23)
e|----------------------------------------------------------------|
B|----------------------------------------------------------------|
G|-777777777777777-9/1010101010101010101010101010101010-----------|
D|-777777777777777-9/1010101010101010101010101010101010-----------|
A|-555555555555555-7/8-8-8-8-8-8-8-8-8-8-8-8-8-8-8-8-8------------|
E|----------------------------------------------------------------|

e|------------------------------------------------------------------------------|
B|------------------------------------------------------------------------------|
G|-55555555555555555------------------(7-7-7-7-7-7-7-9-10-10-10-10-10-10-10-10)-|
D|-5555555555555555555555555555555555--7-7-7-7-7-7-7-9-10-10-10-10-10-10-10-10--|
A|-3333333333333333355555555555555555--5-5-5-5-5-5-5-7-8--8--8--8--8--8--8--8---|
E|------------------33333333333333333-------------------------------------------|

e|-(3~)--------------------------(3~)------------------------------|
B|-(5~)--------------------------(3~)------------------------------|
G|--5~---------------------------(4~)------------------------------|
D|--5~----------------------------5~-------------------------------|
A|--3~----------------------------5~-------------------------------|
E|--------------------------------3~-------------------------------|

Guitar Solo (hehehe... I like it) (1:45)
e|---------------------------------------------------------------------------------------------------------|
B|---------------------------------------------------------------------------------------------------------|
G|------------------------------------------------------------------------------------------------(5)-5--5-|
D|-3-3--3-33-2-0---------------------------------------0-2-3-3--3-5-32----------------------------(5)-5--5-|
A|---------------3-3--3-33-2-0-----------0-2-3-3--3-33-----------------3-3--3-33-2-0-----------0-2-3--3--3-|
E|-----------------------------3-3--3-33---------------------------------------------3-3--3-33-------------|

Bridge
1st Half (1:56)
e|----------------------------------------------------------------|
B|----------------------------------------------------------------|
G|-(5)------------------------------5-----------------------------|
D|-(3)-----(5)--------------5-------3-------5---------------5-5-5-|
A|---------(3)------5-------3---------------3-------5-------3-3-3-|
E|------------------3-------------------------------3-------------|
    *       *       *       *       *       *       *       * * *

2nd Half (2:08)
e|-------8---8-8-8-8----3--3333---3--3333---3--3333---8---8-8-8-8----3--3333---3--3333---------------------|
B|-------10--10101010---5--5555---3--3333---5--5555---10--10101010---5--5555---3--3333---------------------|
G|-------10--10101010---5--5555---5--5555---5--5555---10--10101010---5--5555---5--5555---5-5-5-5-5-5-5-6/7-|
D|-------10--10101010---5--5555---5--5555---5--5555---10--10101010---5--5555---5--5555---5-5-5-5-5-5-5-6/7-|
A|-------8---8-8-8-8----3--3333---4--4444---3--3333---8---8-8-8-8----3--3333---4--4444---3-3-3-3-3-3-3-4/5-|
E|--------------------------------3--3333--------------------------------------3--3333---------------------|
         /   / \ / \    /  /\/\   /  /\/\   /  /\/\   /   / \ / \    /  /\/\   /  /\/\
[ Tab from: http://www.guitartabs.cc/tabs/o/offspring/walla_walla_tab_ver_2.html ]
Chorus (2:19)
e|----------------------------------------------------------------|
B|----------------------------------------------------------------|
G|-777777777777777-9/1010101010101010101010101010101010-----------|
D|-777777777777777-9/1010101010101010101010101010101010-----------|
A|-555555555555555-7/8-8-8-8-8-8-8-8-8-8-8-8-8-8-8-8-8------------|
E|----------------------------------------------------------------|

e|------------------------------------------------------------------------------|
B|------------------------------------------------------------------------------|
G|-55555555555555555------------------(7-7-7-7-7-7-7-9-10-10-10-10-10-10-10-10)-|
D|-5555555555555555555555555555555555--7-7-7-7-7-7-7-9-10-10-10-10-10-10-10-10--|
A|-3333333333333333355555555555555555--5-5-5-5-5-5-5-7-8--8--8--8--8--8--8--8---|
E|------------------33333333333333333-------------------------------------------|

e|-(3~)--------------------------(3~)------------------------------|
B|-(5~)--------------------------(3~)------------------------------|
G|--5~---------------------------(4~)------------------------------|
D|--5~----------------------------5~-------------------------------|
A|--3~----------------------------5~-------------------------------|
E|--------------------------------3~-------------------------------|

Guitar Solo (One more for good 'ol times...) (2:42.5)
e|---------------------------------------------------------------------------------------------------------|
B|---------------------------------------------------------------------------------------------------------|
G|------------------------------------------------------------------------------------------------(5)-5--5-|
D|-3-3--3-33-2-0---------------------------------------0-2-3-3--3-5-32----------------------------(5)-5--5-|
A|---------------3-3--3-33-2-0-----------0-2-3-3--3-33-----------------3-3--3-33-2-0-----------0-2-3--3--3-|
E|-----------------------------3-3--3-33---------------------------------------------3-3--3-33-------------|

-End-



Now...... Rhythm Guitar!!! Distortion is your friend, love it, cherish it, use it...

Chords... I'm gunna put chords... here they are...

   G  C  C# D  E  F
e|-3--3--4--5--7--8--|
B|-3--5--6--7--9--10-|
G|-4--5--6--7--9--10-|
D|-5--5--6--7--9--10-|
A|-5--3--4--5--7--8--|
E|-3-----------------|

Have fun...


Intro
F C G C F C G   C C C

Verse - Heavily Muted... You can barely hear it...
F C G C F C G   C C C
* * * * * * *  
F C G C F C G   C C C C#/D
* * * * * * *

Chorus
D  E/F  C  G
D  E/F  C  G

Guitar Solo (hehe...)
F C G C F C G   C C C

Verse
F C G C F C G   C C C C#/D
* * * * * * *

Chorus
D  E/F  C  G
D  E/F  C  G

Guitar Solo (HAHAHA!!!)
F C G C F C G   C C C

Bridge...
Chill out, hang a while... then CCCCCCC C#/D

Chorus
D  E/F  C  G
D  E/F  C  G

Guitar Solo (I Love This Part!)
F C G C F C G   C C C

-End-



Who Wants Da BASS!?!?!?!?! Here it is! Straight up! On the rocks...

Intro
G|---------------------------------------------------------------------------------|
D|-3-3--3-33-------------------------------3-3--3^5-3------------------------------|
A|-----------3-3--3-33-----------3-3--3-33------------3-3--3-33------------3--3--3-|
E|---------------------3-3--3-33--------------------------------3-3--3-33----------|

Verse
G|--------------------------------------------------------------------------|
D|--------------------------------------------------------------------------|
A|----------33333333----------33333333----------33333333------------3--3--3-|
E|-11111111----------33333333----------11111111----------33333333-----------|

G|-------------------------------------------------------------------------------|
D|-------------------------------------------------------------------------------|
A|----------33333333----------33333333----------33333333------------3--3--3--4/5-|
E|-11111111----------33333333----------11111111----------33333333----------------|


Chorus
G|-----------------------------------------------------------------------------------------|
D|----------2/33333333---------------------------------2/3-3-3-3-3-3-3-3-------------------|
A|-55555555------------33333333----------5-5-5-5-5-5-5-------------------33333333----------|
E|------------------------------33333333------------------------------------------33333333-|

Guitar Solo
G|---------------------------------------------------------------------------------|
D|-3-3--3-33-------------------------------3-3--3^5-3------------------------------|
A|-----------3-3--3-33-----------3-3--3-33------------3-3--3-33------------3--3--3-|
E|---------------------3-3--3-33--------------------------------3-3--3-33----------|

Verse
G|-------------------------------------------------------------------------------|
D|-------------------------------------------------------------------------------|
A|----------33333333----------33333333----------33333333------------3--3--3--4/5-|
E|-11111111----------33333333----------11111111----------33333333----------------|

Chorus
G|-----------------------------------------------------------------------------------------|
D|----------2/33333333---------------------------------2/3-3-3-3-3-3-3-3-------------------|
A|-55555555------------33333333----------5-5-5-5-5-5-5-------------------33333333----------|
E|------------------------------33333333------------------------------------------33333333-|

Guitar Solo
G|---------------------------------------------------------------------------------|
D|-3-3--3-33-------------------------------3-3--3^5-3------------------------------|
A|-----------3-3--3-33-----------3-3--3-33------------3-3--3-33------------3--3--3-|
E|---------------------3-3--3-33--------------------------------3-3--3-33----------|

Bridge
G|--------------------------------------------------------------------------|
D|--------------------------------------------------------------------------|
A|----------33333333----------33333333----------33333333------------3--3--3-|
E|-11111111----------33333333----------11111111----------33333333-----------|

G|------------------------------------------------------------------------------------|
D|------------------------------------------------------------------------------------|
A|----------33333333----------33333333----------33333333------------3-3-3-3-3-3-3-4/5-|
E|-11111111----------33333333----------11111111----------33333333---------------------|

Chorus
G|-----------------------------------------------------------------------------------------|
D|----------2/33333333---------------------------------2/3-3-3-3-3-3-3-3-------------------|
A|-55555555------------33333333----------5-5-5-5-5-5-5-------------------33333333----------|
E|------------------------------33333333------------------------------------------33333333-|

Guitar Solo
G|---------------------------------------------------------------------------------|
D|-3-3--3-33-------------------------------3-3--3^5-3------------------------------|
A|-----------3-3--3-33-----------3-3--3-33------------3-3--3-33------------3--3--3-|
E|---------------------3-3--3-33--------------------------------3-3--3-33----------|

-End-


This all the crap at the bottom! Welcome... All right... Some things you should know.

*On the Lead Guitar Bridge part, the 1st half, he is like... messing around on the guitar, not really doing anything.
 You can hit the notes i put up, and only hit 'em once then mute it, it's the bassist's time, no one likes a pissed bassist.
*On the 2nd Half of the Bridge, the stroking (hehe...) go like this... Down, Down-Up-Down-Up, for people who don't know.
*My Butt Itches.
*The beat on this song is complicated, took me forever to try to tab it out to look like it fit, so...
 Your gunna have to listen to the song to get the full rhythm.
*On the verses, for Lead Guitar, you can hear him play, with strokes, Down Down-Up-Down Down-Up-Down. 
 But dude.. it's a pain in the ass, just play it how ever you want, you don't even have to palm mute.

And that's the crap... if you see a mistake, fix it, not on here, but in the way you play it.
Any questions or comments, i guess i'll take 'em... any Phone #'s are welcome too... ;)
          ----------- rodan2000@yahoo.com ------------
Remember it, it's gunna be famous... Have fun, rock on, aloha muchachas... Dan M~
Comments