Offspring - Walla Walla Chords & Tabs

 

Walla Walla Chords & Tabs

Offspring Chords & Tabs

Version: 3 Type: Bass Tab 0 ratings
1 star 2 stars 3 stars 4 stars 5 stars
comments

Walla Walla Bass Tab

Song: Walla Walla
Artist: The Offspring
Album: Americana

Intro
G--------------------------------------------------------------|
D-3-3-3-3-2-0-----------------------------------------0-2------|
A----------------3-3-3-3-2-0-----------0-2-3-3-3-3-------------|
E-------------------------------3-3-3-3------------------------|

G-------------------------------------------------------|
D-3-3-3-5-2-0-------------------------------------------|
A----------------3-3-3-3-2-0-----------0-2-3-3-3--------|
E-------------------------------3-3-3-3-----------------|

Verse
G-------------------------------------------------------------|
D-3-3-3-3-3-3-------------------------------------------------|
A----------------3-3-3-3-3-3----------------3-3-3-3-3-3-------|
E-------------------------------3-3-3-3-3-3-------------------|

G-----------------------------------------------------------|
D-3-3-3-3-3-3-----------------------------------------------|
A----------------3-3-3-3-3-3----------------3-3-3--(4)------| - (on 2nd time through)
E-------------------------------3-3-3-3-3-3-----------------|
[ Tab from: http://www.guitartabs.cc/tabs/o/offspring/walla_walla_btab_ver_3.html ]
Chorus
G---------------------------------------------------------|
D---------------------------------------------------------|
A-5-5-5-5-5-5-5-5-5-5-7-8-8-8-8-8-8-8-8-8-8-8-------------|
E---------------------------------------------------------|

G---------------------------------------------------------|
D---------------------------------------------------------|
A-3-3-3-3-3-3-3-3-3-3-3-----------------------------------|
E----------------------------3-3-3-3-3-3-3-3-3-3-3--------|

Verse II
G--------------------------------------------------------------|
D-3-3-3-3-3-3--------------------------------------------------|
A----------------3-3-3-3-3-3----------------3-3-3-3-3-3--------|
E-------------------------------3-3-3-3-3-3--------------------|

G------------------------------------------------------------------|
D-3-3-3-3-3-3------------------------------------------------------|
A----------------3-3-3-3-3-3---------------3-3-3-3-3-3-3-4---------|
E------------------------------3-3-3-3-3-3-------------------------|

Play Order -
Intro x1
Verse x2
Chorus x2
Intro x1
Verse x1
Chorus x2
Intro x1
Verse x1
Verse II x1
Chorus x2
Intro x1
Comments