Offspring - Vultures Chords & Tabs

 

Vultures Chords & Tabs

Offspring Chords & Tabs

Version: 8 Type: Tab 0 ratings
1 star 2 stars 3 stars 4 stars 5 stars
comments

Vultures Tab

#--------------------------------PLEASE NOTE--------------------------------------#
This file is the author's own work and represents their interpretation of the song. 
You may only use this file for private study, scholarship, or research.
#---------------------------------------------------------------------------------#
===================================================================================
Band:		The Offspring
Song:		Vultures
Album: 		Conspiracy of One
Transcribed by: Rhys Jones, rhysj2000@hotmail.com

Two guitars definately needed for solo section.
===================================================================================
	STANDARD TUNING		HIGH DISTORTION (oh yes)

I've seen some pretty decent attempts here at this song, some very accurate but at 
the same time making it hard on yourself. My version is easier to play 
(giving you more time & breathing room to add your own personal touch) and I think 
sounds the most accurate. So enjoy!

==============
INTRO & VERSE		
==============
e|---------------------------------------------------------------------------|
B|---------------------------------------------------------------------------|
G|---------------------------------------------------------------------------|
D|-------2----------2--------2-----------------------------------------------|
A|--0-------0--3-------3--2-----2----------2---------------------------------|
E|---------------------------------0----3-----3------------------------------|

			( 12 Times )


===========
PRE-CHORUS		
===========
e|---------------------------------------------------------------------------|
B|---------------------------------------------------------------------------|
G|--7----7--10-10-10---------------------------------------------------------|
D|--7----7--10-10-10----7-7-7--10-10-10--------------------------------------|
A|--5----5--8--8--8-----7-7-7--10-10-10--------------------------------------|
E|----------------------5-5-5--8--8--8---------------------------------------|

			( 3 Times )


e|---------------------------------------------------------------------------|
B|---------------------------------------------------------------------------|
G|--9-9-9-9-9-9-9-9--9-9-9-9-9-9-9-9-----------------------------------------|
D|--9-9-9-9-9-9-9-9--9-9-9-9-9-9-9-9-----------------------------------------|
A|--7-7-7-7-7-7-7-7--7-7-7-7-7-7-7-7-----------------------------------------|
E|---------------------------------------------------------------------------|


=======
CHORUS
=======
e|---------------------------------------------------------------------------|
B|---------------------------------------------------------------------------|
G|-----------5-5----5--------------------------------------------------------|
D|--7-7----7-5-5----5-2-2----2-2-2-2-----------------------------------------|
A|--7-7----7-3-3----3-2-2----2-2-2-2-----------------------------------------|
E|--5-5----5----------0-0----0-0-0-0-----------------------------------------|

			( 3 Times )


e|---------------------------------------------------------------------------|
B|---------------------------------------------------------------------------|
G|--7-7-7-7-7-7-7-7--9-9-9-9-9-9-9-9-----------------------------------------|
D|--7-7-7-7-7-7-7-7--9-9-9-9-9-9-9-9-----------------------------------------|
A|--5-5-5-5-5-5-5-5--7-7-7-7-7-7-7-7-----------------------------------------|
E|---------------------------------------------------------------------------|


======
VERSE		
======
e|---------------------------------------------------------------------------|
B|---------------------------------------------------------------------------|
G|---------------------------------------------------------------------------|
D|-------2----------2--------2-----------------------------------------------|
A|--0-------0--3-------3--2-----2----------2---------------------------------|
E|---------------------------------0----3-----3------------------------------|

			( 6 Times )


===========
PRE-CHORUS		
===========
e|---------------------------------------------------------------------------|
B|---------------------------------------------------------------------------|
G|--7----7--10-10-10---------------------------------------------------------|
D|--7----7--10-10-10----7-7-7--10-10-10--------------------------------------|
A|--5----5--8--8--8-----7-7-7--10-10-10--------------------------------------|
E|----------------------5-5-5--8--8--8---------------------------------------|

			( 3 Times )


e|---------------------------------------------------------------------------|
B|---------------------------------------------------------------------------|
G|--9-9-9-9-9-9-9-9--9-9-9-9-9-9-9-9-----------------------------------------|
D|--9-9-9-9-9-9-9-9--9-9-9-9-9-9-9-9-----------------------------------------|
A|--7-7-7-7-7-7-7-7--7-7-7-7-7-7-7-7-----------------------------------------|
E|---------------------------------------------------------------------------|


=======
CHORUS 
=======
e|---------------------------------------------------------------------------|
B|---------------------------------------------------------------------------|
G|-----------5-5----5--------------------------------------------------------|
D|--7-7----7-5-5----5-2-2----2-2-2-2-----------------------------------------|
A|--7-7----7-3-3----3-2-2----2-2-2-2-----------------------------------------|
E|--5-5----5----------0-0----0-0-0-0-----------------------------------------|

			( 3 Times )


e|---------------------------------------------------------------------------|
B|---------------------------------------------------------------------------|
G|--7-7-7-7-7-7-7-7--9-9-9-9-9-9-9-9-----------------------------------------|
D|--7-7-7-7-7-7-7-7--9-9-9-9-9-9-9-9-----------------------------------------|
A|--5-5-5-5-5-5-5-5--7-7-7-7-7-7-7-7-----------------------------------------|
E|---------------------------------------------------------------------------|


[ Tab from: http://www.guitartabs.cc/tabs/o/offspring/vultures_tab_ver_8.html ]
e|---------------------------------------------------------------------------|
B|---------------------------------------------------------------------------|
G|-----------5-5----5--------------------------------------------------------|
D|--7-7----7-5-5----5-2-2----2-2-2-2-----------------------------------------|
A|--7-7----7-3-3----3-2-2----2-2-2-2-----------------------------------------|
E|--5-5----5----------0-0----0-0-0-0-----------------------------------------|

			( 3 Times )


e|---------------------------------------------------------------------------|
B|---------------------------------------------------------------------------|
G|--7-7-7-7-7-7-7-7--9-9-9-9-9-9-9-9-----------------------------------------|
D|--7-7-7-7-7-7-7-7--9-9-9-9-9-9-9-9-----------------------------------------|
A|--5-5-5-5-5-5-5-5--7-7-7-7-7-7-7-7-----------------------------------------|
E|---------------------------------------------------------------------------|


=====
SOLO
=====
Guitar 1 plays the Intro/Verse riff 4 times, and guitar 2 plays this on top.
The speed of the solo is pretty obvious when you split it into 4 parts as the
rhythm piece dictates.

e|---------------------------------------------------------------------------|
B|---------------------------------------------------------------------------|
G|---------------------------------------------------------------------------|
D|--2/7--h10-10--10-10-9-10-9-------7--h10-10-10-10/12--10--9--h10--9--------|
A|--------------------------10-7-------------------------------------10------|
E|---------------------------------------------------------------------------|


e|---------------------------------------------------------------------------|
B|---------------------------------------------------------------------------|
G|-----------------------------------------------------------9--7------------|
D|--7--h10-10--10-10-9-10-9-------7--h10-10-10-10/12--10--9--------10--9-----|
A|--------------------------10-7---------------------------------------------|
E|---------------------------------------------------------------------------|



===========
PRE-CHORUS		
===========

e|---------------------------------------------------------------------------|
B|---------------------------------------------------------------------------|
G|--7----7--10-10-10---------------------------------------------------------|
D|--7----7--10-10-10----7-7-7--10-10-10--------------------------------------|
A|--5----5--8--8--8-----7-7-7--10-10-10--------------------------------------|
E|----------------------5-5-5--8--8--8---------------------------------------|

			( 3 Times )


e|---------------------------------------------------------------------------|
B|---------------------------------------------------------------------------|
G|--9-9-9-9-9-9-9-9--9-9-9-9-9-9-9-9-----------------------------------------|
D|--9-9-9-9-9-9-9-9--9-9-9-9-9-9-9-9-----------------------------------------|
A|--7-7-7-7-7-7-7-7--7-7-7-7-7-7-7-7-----------------------------------------|
E|---------------------------------------------------------------------------|



=======
CHORUS 
=======
e|---------------------------------------------------------------------------|
B|---------------------------------------------------------------------------|
G|-----------5-5----5--------------------------------------------------------|
D|--7-7----7-5-5----5-2-2----2-2-2-2-----------------------------------------|
A|--7-7----7-3-3----3-2-2----2-2-2-2-----------------------------------------|
E|--5-5----5----------0-0----0-0-0-0-----------------------------------------|

			( 3 Times )


e|---------------------------------------------------------------------------|
B|---------------------------------------------------------------------------|
G|--7-7-7-7-7-7-7-7--9-9-9-9-9-9-9-9-----------------------------------------|
D|--7-7-7-7-7-7-7-7--9-9-9-9-9-9-9-9-----------------------------------------|
A|--5-5-5-5-5-5-5-5--7-7-7-7-7-7-7-7-----------------------------------------|
E|---------------------------------------------------------------------------|



e|---------------------------------------------------------------------------|
B|---------------------------------------------------------------------------|
G|-----------5-5----5--------------------------------------------------------|
D|--7-7----7-5-5----5-2-2----2-2-2-2-----------------------------------------|
A|--7-7----7-3-3----3-2-2----2-2-2-2-----------------------------------------|
E|--5-5----5----------0-0----0-0-0-0-----------------------------------------|

			( 3 Times )


e|---------------------------------------------------------------------------|
B|---------------------------------------------------------------------------|
G|--7-7-7-7-7-7-7-7--9-9-9-9-9-9-9-9-----------------------------------------|
D|--7-7-7-7-7-7-7-7--9-9-9-9-9-9-9-9-----------------------------------------|
A|--5-5-5-5-5-5-5-5--7-7-7-7-7-7-7-7-----------------------------------------|
E|---------------------------------------------------------------------------|


End on a powerful strike of this....
e|---------------------------------------------------------------------------|
B|---------------------------------------------------------------------------|
G|---------------------------------------------------------------------------|
D|-------9-------------------------------------------------------------------|
A|-------9-------------------------------------------------------------------|
E|-------7-------------------------------------------------------------------|


...and let her ring!

=======
Lyrics
=======

Verse 1
----------
Now I could lie, by your side
All serrated for you
Down below, cancer grows
Weeping waits inside you too
Now all our rage, begs a stage
It's a waste of time though
And you style, seems worthwhile
But this lonely road has turned 

Pre-Chorus 1
---------------
And you faded there
They pretend to care
Vultures waiting
If you don't like me
Certify Me 


Chorus
---------
Yeah  I don't know, yeah
Yeah  I won't go, yeah
Yeah  save it, I'm okay, okay


Verse 2
----------
And in the sun a loaded gun
Makes for conversation
All the while in denial
It's too late for me to change 


Pre-Chorus 2
---------------
And you were unchained
Nothing more had changed
I could fake it 
If you still hate me
Confiscate me 


Chorus
---------
Yeah  I don't know, yeah
Yeah  I won't go, yeah
Yeah  save it I'm okay, okay
Yeah  I won't play, yeah
Yeah  Go away, yeah
Yeah  save it I'm okay, okay

-------
Solo
-------


Pre-Chorus 3
---------------
And you were unchained
Nothing more had changed
I could fake it 
If you still hate me
Confiscate me 


Chorus
---------
Yeah  I don't know, yeah
Yeah  I won't go, yeah
Yeah  save it I'm okay, okay
Yeah  I won't play, yeah
Yeah  Go away, yeah
Yeah  save it I'm okay

========
Enjoy :)
========
Comments