Offspring - Vultures Chords & Tabs

 

Vultures Chords & Tabs

Offspring Chords & Tabs

Version: 3 Type: Tab 1 rating
1 star 2 stars 3 stars 4 stars 5 stars
comments

Vultures Tab


I thought the intro's in the other tabs on this site sucked
so I decided to post mine which sounds killer when I play along
with the CD.  This song is easy so just listen to the CD
for the timing and everything will fall into place.

Offspring
Vultures

Intro / Verse
|----------------------------|
|----------------------------|
|----------------------------|
|---4---0-4-0---4------------|  
|-2---2-------4---4------4-0-|
|-------------------2--5-----|
[ Tab from: http://www.guitartabs.cc/tabs/o/offspring/vultures_tab_ver_3.html ]
Pre-Chorus
|--------------------------------------|
|--------------------------------------|
|-9--9-9-/-12--12-12-\-4-4-4-/-7-7-7-7-|
|-9--9-9-/-12--12-12-\-4-4-4-/-7-7-7-7-|   Play 3x
|-7--7-7-/-10--10-10-\-2-2-2-/-5-5-5-5-|   
|--------------------------------------|


|----|
|----|
|-11-|
|-11-|  Play 16x
|-9--|
|----|

Chorus
|------------------------------|
|------------------------------|
|-4-4-x--7-7-x-----------------|
|-4-4-x--7-7-x--4-4-x-4--------|  Play 3x
|-2-2-x--5-5-x--4-4-x-4----4-0-|
|---------------2-2-x-2--5-----|


|---------------------------------------------------|
|---------------------------------------------------|
|---------------------------------------------------|
|-14-14-14-14-14-14-14-14-/-16-16-16-16-16-16-16-16-|  Play 1x
|-14-14-14-14-14-14-14-14-/-16-16-16-16-16-16-16-16-|
|-12-12-12-12-12-12-12-12-/-14-14-14-14-14-14-14-14-|

Ending
|---|
|---|
|---|
|-9-|  Play 1x
|-9-|
|-7-|
Comments