Offspring - Vultures Chords & Tabs

 

Vultures Chords & Tabs

Offspring Chords & Tabs

Version: 2 Type: Tab 3 ratings
1 star 2 stars 3 stars 4 stars 5 stars
comments

Vultures Tab

@@@@@@@@@@@@@@@@@@@@@@@@@@@@@@
  Artist: The Offspring
  Album: Conspiracy of One
  Song: Vultures
@@@@@@@@@@@@@@@@@@@@@@@@@@@@@@

Really cool song, reminded me of Dirty Magic
when I first heard it. They use the same effect.
Not very hard, however the solo may have some errors,
and I'm too tired to fix them, so I leave that up to you.
Pass me that corpse, will ya.......

/Daniel - phantom@libertysurf.se


pm = palm muted

Riff: 12x (this is the verse!)
E|--------------------------------|
B|--------------------------------|
G|--------------------------------|
D|----2------2------2-------------|
A|--0---0--3---3--2---2------2----|
E|-----------------------0-3---3--|


Bridge: 3x  () = only last time
E|----------------------------------------------------|
B|----------------------------------------------------|
G|--7-7-10-10------------------(9-9-9-9-9-9-9-9-9-9)--|
D|--7-7-10-10--7-7-7-10-10-10--(9-9-9-9-9-9-9-9-9-9)--|
A|--5-5--8--8--7-7-7-10-10-10--(7-7-7-7-7-7-7-7-7-7)--|
E|-------------5-5-5--8--8--8--pmpmpmpmpmpmpmpmpmpm---|

[ Tab from: http://www.guitartabs.cc/tabs/o/offspring/vultures_tab_ver_2.html ]
Chorus: 3x  () = only last time
E|--------------------------------------------------------|
B|--------------------------------------------------------|
G|-----5---------------(7-7-7-7-7-7-7-7-9-9-9-9-9-9-9-9)--|
D|--7--5--2-2--2--2-2--(7-7-7-7-7-7-7-7-9-9-9-9-9-9-9-9)--|
A|--7--3--2-2pm2pm2-2--(5-5-5-5-5-5-5-5-7-7-7-7-7-7-7-7)--|
E|--5-----0-0--0--0-0-------------------------------------|


Riff 6x, bridge, and chorus 2x, then


Solo:  (May be some errors)
E|--------------------------------------------------------------------------|
B|--------------------------------------------------------------------------|
G|--------------------------------------------------------------------------|
D|--7---10-10-9-10-9--------7---10-10-12-10-9-10-9---7---10-10-9-10-9-------|
A|-------------------10-7---------------------------------------------10-7--|
E|--------------------------------------------------------------------------|

E|--------------------------------|
B|--------------------------------|
G|--------------------------------|
D|--7---10-10-9-10-12-14-12-10-9--|
A|--------------------------------|
E|--------------------------------|


Bridge, and chorus twice, then, 


End:
E|-----|
B|-----|
G|-----|
D|--7--|
A|--7--|
E|--5--|
Comments