Offspring - Vultures Chords & Tabs

 

Vultures Chords & Tabs

Offspring Chords & Tabs

Version: 1 Type: Tab 0 ratings
1 star 2 stars 3 stars 4 stars 5 stars
comments

Vultures Tab

#----------------------------------PLEASE NOTE--------------------------------#
#This file is the author's own work and represents their interpretation of the#
#song. You may only use this file for private study, scholarship, or research.#
#-----------------------------------------------------------------------------#
#-- File created with Instab - http://www.pconline.com/~smcarey/instab.html --#
#-----------------------------------------------------------------------------#

Author/Artist: The Offspring
Title: Vultures
Album: Conspiracy Of One
Transcribed by: Michael Cusack
Email: Mike_c16@hotmail.com

Easy song I m almost sure its right.Normal tuning.Remember Irish Rockers rock hardest.Get my bands song from Napster   Purgatree-Needing You 
[ Tab from: http://www.guitartabs.cc/tabs/o/offspring/vultures_tab.html ]
intro:
------------------------------------------------------------------------------
------------------------------------------------------------------------------
------------------------------------------------------------------------------
---2---2-----5-----5----------------------------------------------------------
-0--0-3--3-----5-----5--------------------------------------------------------
-----------3-----3-----3--x12-------------------------------------------------
 thats the intro and verse1 and verse2.Next comes the chorus                  

------------------------------------------------------------------------------
------------------------------------------------------------------------------
-77-55-99999999---7777777799999999-----55-99999999---7777777799999999---------
-77-55-99999999---7777777799999999--77-55-99999999---7777777799999999---------
-55-33-77777777x3-5555555577777777--77-33-77777777x3-5555555577777777---------
-----------------------------------*55----------------------------------------
             then verse 2(intro). 2nd chorus same except repeat part *.
Solo:  

------------------------------------------------------------------------------
--------------------------17-16-13/14/12--------------------------------------
-11-17-16-15-13b13b-11-1717---------------------------------------------------
------------------------------------------------------------------------------
-----------------------------------------x2-----------------------------------
------------------------------------------------------------------------------
       then play chorus again and thats it.mail me with questions or          
 comments:mike_c16@hotmail.com                                                

Comments