Offspring - Vultures Chords & Tabs

 

Vultures Chords & Tabs

Offspring Chords & Tabs

Version: 2 Type: Bass Tab 0 ratings
1 star 2 stars 3 stars 4 stars 5 stars
comments

Vultures Bass Tab

   
BAND:The offspring
SONG:Vultures
CD:Conspiracy of one
Tab by: Sebastian Göpel (gopel@metallica.com -- icq:47829407))

No timing

r=pause,stop the sound

Main riff:

G-------------------------I
D-------------------------I
A-0-r-0-3-r-3-2-2-2----2--I
E-------------------0-0-0-I

pre chorus

G-------------------------I
D-------------------------I
A-5-5-5-8-8-8-------------I
E-------------5-5-5-8-8-8-I
[ Tab from: http://www.guitartabs.cc/tabs/o/offspring/vultures_btab_ver_2.html ]
Thise a couple of time and the lead to the chorus with this:

G-------------------I
D-------------------I
A-7-7-7-7-7-7-7-7-7-I
E-------------------I

Chorus

G---------------------------I
D---------------------------I
A---------3-3-r-3-----------I
E-5-5-r-5---------0-0-0-0-0-I

Then (end of chorus)

G-------------------------I
D-------------------------I
A-5-5-5-5-5-5-7-7-7-7-7-7-I
E-------------------------I

End on this:

G------I
D------I
A-0~~~-I
E------I
Comments