Offspring - Totalimmortal Chords & Tabs

 

Totalimmortal Chords & Tabs

Offspring Chords & Tabs

Version: 1 Type: Tab 0 ratings
1 star 2 stars 3 stars 4 stars 5 stars
comments

Totalimmortal Tab

Song: Totalimmortal
Artist: The Offspring
Album: "Me, Myself, and Irene" Soundtrack
As tabbed by Joe Muggah
joe_the_man3@hotmail.com

<> = harmonics

Riff
e----------------------------------------------------------
B----------------------------------------------------------
G-----9------------7-7-7------9------------------7-7-7-----
D--2--9--5--5-5-5--7-7-7---2--9--5--<5>-<5>-<5>--7-7-7-----
A--2--7--5--5-5-5--5-5-5---2--7--5--<5>-<5>-<5>--5-5-5-----
E--0-----3--3-3-3----------0-----3--<3>-<3>-<3>------------

(continued)
e----------------------------------------------------------
B----------------------------------------------------------
G-----9------------7-7-7---------9--9-9-9-9-9-9------------
D--2--9--5--5-5-5--7-7-7---5--7--9--9-9-9-9-9-9------------
A--2--7--5--5-5-5--5-5-5---5--7--7--7-7-7-7-7-7------------
E--0-----3--3-3-3----------3--5----------------------------

Fill 1
e----------------------------------------------------------
B----------------------------------------------------------
G----------------------------------------------------------
D--7--8--5--5m-5m-5m--5-5----------------------------------
A--7--6--5--5m-5m-5m--5-5----------------------------------
E--5--6--3--3m-3m-3m--3-3----------------------------------

Verse (palm muted)
e----------------------------------------------------------
B--10-10-10--12-12-12--8-8-8--10-10-10--7-7--8-8-----------
G----------------------------------------------------------
D----------------------------------------------------------
A----------------------------------------------------------
E----------------------------------------------------------

Fill 2
e----------------------------------------------------------
B----------------------------------------------------------
G---------------------------------------10-----------------
D--9m-9m-9m-9m-9m-9m-9m-9m-9m-9m-9m-9m--10-----------------
A--9m-9m-9m-9m-9m-9m-9m-9m-9m-9m-9m-9m---8-----------------
E--7m-7m-7m-7m-7m-7m-7m-7m-7m-7m-7m-7m---------------------

Pre-Chorus (palm muted and gradually louder)
e----------------------------------------------------------
B----------------------------------------------------------
G--9-9-9-9-9-9-9-9-9-9-9-9-9-9-9-9-9-9-9-9-9---------------
D--9-9-9-9-9-9-9-9-9-9-9-9-9-9-9-9-9-9-9-9-9---------------
A--7-7-7-7-7-7-7-7-7-7-7-7-7-7-7-7-7-7-7-7-7---------------
E----------------------------------------------------------
[ Tab from: http://www.guitartabs.cc/tabs/o/offspring/totalimmortal_tab.html ]
Chorus
e----------------------------------------------------------
B----------------------------------------------------------
G--------------------------------------------7-7-7-7-7-----
D--2-2-2-2-2-2-2-2-2-4--5-5-5-5-5-5-5-5-5-5--7-7-7-7-7-----
A--2-2-2-2-2-2-2-2-2-4--5-5-5-5-5-5-5-5-5-5--5-5-5-5-5-----
E--0-0-0-0-0-0-0-0-0-2--3-3-3-3-3-3-3-3-3-3----------------

(continued)
e----------------------------------------------------------
B----------------------------------------------------------
G--7-7-7-7-7--9--7--9--12-12-12-12-12-12-------------------
D--7-7-7-7-7--9--7--9--12-12-12-12-12-12-------------------
A--5-5-5-5-5--7--5--7--10-10-10-10-10-10-------------------
E----------------------------------------------------------

(continued)
e----------------------------------------------------------
B----------------------------------------------------------
G--------------------------------------------7-7-7-7-7-----
D--2-2-2-2-2-2-2-2-2-4--5-5-5-5-5-5-5-5-5-5--7-7-7-7-7-----
A--2-2-2-2-2-2-2-2-2-4--5-5-5-5-5-5-5-5-5-5--5-5-5-5-5-----
E--0-0-0-0-0-0-0-0-0-2--3-3-3-3-3-3-3-3-3-3----------------

(continued)
e----------------------------------------------------------
B----------------------------------------------------------
G--7-7-7-7-7--9--11--12--14-14-14-14-14-14-----------------
D--7-7-7-7-7--9--11--12--14-14-14-14-14-14-----------------
A--5-5-5-5-5--7---9--10--12-12-12-12-12-12-----------------
E----------------------------------------------------------

Bridge
e----------------------------------------------------------
B----------------------------------------------------------
G--9-9----9-9--9-9-----9-9----9-9--7-7----9-9----9-9--9-9--
D--9-9----9-9--9-9-----9-9----9-9--7-7----9-9----9-9--9-9--
A--7-7----7-7--7-7-----7-7----7-7--5-5----7-7----7-7--7-7--
E----------------------------------------------------------

(continued)                                 Outro
e------------------------------------------|---------------
B------------------------------------------|---------------
G--9-9----9-9--9-9--10---------------------|---------------
D--9-9----9-9--9-9--10---2-----------------|---2-----------
A--7-7----7-7--7-7---8---2--(let ring)-----|---2-----------
E------------------------0-----------------|---0-----------


Riff
Fill 1
Verse
Fill 2
Pre-Chorus
Chorus
Riff
Fill 1
Verse
Fill 2
Pre-Chorus
Chorus
Bridge
Chorus
Outro

This is an awesome song, but not many people have heard it 
because it's on a soundtrack.
Comments