Offspring - Total Immortal Chords & Tabs

 

Total Immortal Chords & Tabs

Offspring Chords & Tabs

Version: 2 Type: Tab 0 ratings
1 star 2 stars 3 stars 4 stars 5 stars
comments

Total Immortal Tab

: for www.ultimate-guitar.com 
: 
: New Tabs
: 27  2000 . 22:32

Offspring, Total Immortal.
 Tabbed by Aaron Curtis, caffeinated_peppermints@yahoo.com.
  
Total Immortal by The Offspring originally by AFI, tabbed by Aaron Curtis caffeinated_peppermints@yahoo.com
This is a fun, fast song to play. One of the best.

INTRO
G|------9-9--- 7-7-7------ 9-9--------------    9-9--- 7-12-14-9-9-9-9-9-9-9-|
D|-2-2-9-9-5-7-7-7--2-2-9-9-5-x-x-x--2-2-9-9-5-7-12-14-9-9-9-9-9-9-9-|
A|-2-2-7-7-5-5-5-5--2-2-7-7-5-x-x-x--2-2-7-7-5-5-10-12-7-7-7-7-7-7-7-|
 E|-0-0----- 3-------   0-0---- -3-x-x-x--0-0---- -3------------------|

Verse I
D|-7-8-5---|
A|-7-8-5---|
E|-5-6-4----|
The first part comes in right at the word ?ones

Verse II
e|-0-0-0-3-3-5-5-7-7-3-5-3-5--|
In the background
[ Tab from: http://www.guitartabs.cc/tabs/o/offspring/total_immortal_tab_ver_2.html ]
Pre-chorus 
G|-------------------      10--|
D|-9-9-9-9-9-9-9-9-9-10--|
A|-9-9-9-9-9-9-9-9-9--8--|
E|-7-7-7-7-7-7-7-7-7-----|
Palm-muted__________/

Pre-chorus, play a lot
D|-2--|
A|-2--|
E|- 0--|
Palm mute at first then gradually let it up

Chorus1
G|-----------------     7-7-7-7--|
D|-2-2-2-2-5-5-5-5-7-7-7-7--|
A|-2-2-2-2-5-5-5-5-5-5-5-5--|
E|-0-0-0-0-3-3-3-3----------|

Chorus2              Chorus 3                     Chorus goes 1 , 2 , 1 , 3
G|-------------    ||--------------|
D|-------5-5-5-7||-----5-7-7-7-9-|
A|-7-5-7-------  ||-7-9----------|

Bridge start, -let this part ring a little
G|-2--|
D|-2--|
A|-0--|

Bridge
G|-9--9-9-9-9--9--9-9-9-7--9--9-9-9-9--9--9-9-9-9-9/10-----|      
D|-9--9-9-9-9--9--9-9-9-7--9--9-9-9-9--9--9-9-9-9-9/10-- 2~--|                  
A|-7--7-7-7-7--7--7-7-7-5--7--7-7-7-7--7--7-7-7-7-7/-8---2~--|                   
E|------------------------------------------------------------------0~--|                    
                                                                                            End on this note also
 
:: Ultimate Guitar Archive :: 
http://www.ultimate-guitar.com 

Comments