Offspring - The Noose Chords & Tabs

 

The Noose Chords & Tabs

Offspring Chords & Tabs

Version: 2 Type: Tab 0 ratings
1 star 2 stars 3 stars 4 stars 5 stars
comments

The Noose Tab

   
Artist: The Offspring
Song: The Noose
Album: Splinter
Tabber: Danc446 (@yahoo.com)

INTRO:
   E5
e|------------------------------------------------|
B|------------------------------------------------|
G|------------------------------------------------|
D|-----9---9-9----5---5-5-----4--5--4------4-5-4--|
A|-7-7--7-7---------------5-5--5--5--5--7-7-7-7-7-|
E|-------------3-3-3-3----------------------------|

Riff A
e|---------------------|
B|---------------------|
G|-----------7:----12:-|
D|-2:---5:-------------|
A|---------------------|
E|---------------------|

VERSE (Guitar 2 plays the second E5 at the 7th Fret A string)
e|-----------------------------------------------------------------|
B|-----------------------------------------------------------------|
G|---------------------------------7-7-7-7-7-7-7-7-----------------|
D|-2-2-2-2-2-2-2-2-5-5-5-5-5-5-5-5-7-7-7-7-7-7-7-7-2-2-2-2-2-2-2-2-|
A|-2-2-2-2-2-2-2-2-5-5-5-5-5-5-5-5-5-5-5-5-5-5-5-5-2-2-2-2-2-2-2-2-|
E|-0-0-0-0-0-0-0-0-3-3-3-3-3-3-3-3-----------------0-0-0-0-0-0-0-0-|
[ Tab from: http://www.guitartabs.cc/tabs/o/offspring/the_noose_tab_ver_2.html ]
CHORUS
e|-----------------------------------------------------------------|
B|-----------------------------------------------------------------|
G|-9-9-9-9-9-9-9-9-----------------7-7-7-7-7-7-7-7-9-9-9-9-9-9-9-9-|
D|-9-9-9-9-9-9-9-9-5-5-5-5-5-5-5-5-7-7-7-7-7-7-7-7-9-9-9-9-9-9-9-9-|
A|-7-7-7-7-7-7-7-7-5-5-5-5-5-5-5-5-5-5-5-5-5-5-5-5-7-7-7-7-7-7-7-7-|
E|-----------------3-3-3-3-3-3-3-3---------------------------------|
[SOLO]:
e|---------------------------------------------12----12----12----12----|
B|---------11----------15----15----15----15----15b17-15b17-15b17-15b17-|
G|---9-----14b15-16b18-17b19-17b19-17b19-17b19-------------------------|
D|---------------------------------------------------------------------|
A|---------------------------------------------------------------------|
E|---------------------------------------------------------------------|

[BRIDGE]:
e|--------------------------------------------|
B|--------------------------------------------|
G|-7-9-9-9-9-------------5-7-7-7-7--7-9-9-9-9-|
D|-7-9-9-9-9--4-5-5-5-5--5-7-7-7-7--7-9-9-9-9-|
A|-5-7-7-7-7--4-5-5-5-5--3-5-5-5-5--5-7-7-7-7-|
E|------------2-3-3-3-3-----------------------|
Comments