Offspring - The Noose Chords & Tabs

 

The Noose Chords & Tabs

Offspring Chords & Tabs

Version: 2 Type: Bass Tab 0 ratings
1 star 2 stars 3 stars 4 stars 5 stars
comments

The Noose Bass Tab

   
G:|--------|---------------------------------------|
D:|--------|----------------------7----------------|
A:|7777/-\-|77777------------55555-55-77-9-10-10-99|
E:|--------|-----00-333333-03----------------------|

G:|--------|
D:|--------|
A:|--------|
E:|0~0~0~0~|


G:|-----------------------|
D:|-----------------------|
A:|777-5-777-5-777-5-777-5| x2
E:|-----------------------|

G:|---------------------------------------------|
D:|---------------------------------------------|
A:|777-5-777-5-----------555-3-555-3-777-5-777-5|
E:|-----------333-2-333-2-----------------------|

G:|-----------------------------------|
D:|-----------------------------------|
A:|777-5-777-5-----------555-3-555-3-7|
E:|-----------333-2-333-2-------------|

G:|------------------------------------|
D:|------------------------------------|
A:|77777777----------55555555----------|
E:|---------33333333----------3333333-2|

G:|-----------------------------------|
D:|-----------------------------------|
A:|77777777---------------------------|
E:|---------33333333-222222222222-3333|

G:|--------------------------------------|
D:|--------------------------------------|
A:|77777777-5----------555-3-555-77777777| x2
E:|-----------33333-333------------------|

G:|-------------------------------------------|
D:|-------------------------------------------|
A:|777-5-777-------------555-3-555-3-777-5-777|
E:|---------2-333-2-333-2---------------------|

G:|----------------------------------------------------|
D:|----------------------------------------------------|
A:|777-5-777-----------------------------------10101010| 
E:|---------2-333-2-333-2222222222222222222222/--------|

G:|--------------------------------------|
D:|--------------------------------------|
A:|77777777-5----------5555555-3-77777777|
E:|-----------3333333-2------------------|
[ Tab from: http://www.guitartabs.cc/tabs/o/offspring/the_noose_btab_ver_2.html ]
G:|---------------------------------------|
D:|---------------------------------------|
A:|77777777-5----------5555555-3-7777-10-9|
E:|-----------3333333-2-------------------|

G:|---------------------------------------------|
D:|---------------------------------------------|
A:|777-5-777-5-----------555-3-555-3-777-5-777-5|
E:|-----------333-2-333-2-----------------------|

G:|--------------------------------------------|
D:|--------------------------------------------|
A:|777-5-777-5-1010101010101010--------55555555|
E:|----------------------------33333333--------|

G:|--------------------------------------|
D:|--------------------------------------|
A:|77777777-5----------555-3-555-77777777|
E:|-----------333-2-333------------------|

G:|---------------------------------------|
D:|---------------------------------------|
A:|77777777-5----------55555555-3-7777-10-9|
E:|-----------333-2-333-------------------|

G:|--------|
D:|--------|
A:|--------|
E:|0~0~0~0~|

guitar fill

G:|-----------------------|
D:|-----------------------|
A:|---------------7777/-\-|
E:|00---00---00-----------|

G:|---------------------------------------|
D:|----------------------7----------------|
A:|77777------------55555-55-77-9-10-10-99| x2
E:|-----00-333333-03----------------------|

G:|--------------------------------|
D:|--------------------------------|
A:|5/7�-7----------3/5---5-5/7---7-| x3
E:|----0---2/3-33-0----0-------0---|

G:|---------------------------------------|
D:|---------------------------------------|
A:|5/7�-7---------3/55555555-7777-10101010|
E:|----0---2/3-33-------------------------|

G:|------------------------------------------|
D:|------------------------------------------|
A:|77777777-5------------5555-3-5555-77777777| x2
E:|-----------3333-2-3333--------------------|

G:|--------------------------------------------|
D:|--------------------------------------------|
A:|77777777-5-1010101010101010-5555-3-5555/9999|
E:|--------------------------------------------|

G:|----------|
D:|----------|
A:|----------|
E:|0~0~0~0~0~|
Comments