Offspring - The Kids Arent Alright Chords & Tabs

 

The Kids Arent Alright Chords & Tabs

Offspring Chords & Tabs

Version: 16 Type: Tab 0 ratings
1 star 2 stars 3 stars 4 stars 5 stars
comments

The Kids Arent Alright Tab

   
----------------------------
      The  Offspring
The Kids Aren't Alright Tabs
----------------------------
Tabs
Tabbed by Sébastien Major
sebmajor@hotmail.com

Hey,

I always wanted to write tabs so here i am on my first one. By the way, this song is one
of my favorites. Also, it's very fast so try it slow for the first few times, without the
cd. I also spread the tabs out so you can see clearer.

Tuning: Standard
E B G D A E

For this part, place your fingers like this:
(FRETS)
0---1---2---3---4
0-2-1-3-2---3---4
0---1---2-4-3---4
0---1---2---3-5-4
0---1---2---3---4
0---1---2---3---4


Intro

E|--------------------------------| \
B|----2---2-----1---1-1-1-1-2-1---|  \
G|3-3-3-3-3-3-3-3-3-3-3-3-3-3-3-3-|   \
D|--------------------------------|    \
A|--------------------------------|     \
E|--------------------------------|      \
                                          \
E|--------------------------------|        \
B|----2---2-----1---1-1-1-1-2-1---|         \
G|--------------------------------|          \
D|4-4-4-4-4-4-4-4-4-4-4-4-4-4-4-4-|           \
A|--------------------------------|            \
E|--------------------------------|             \
                                                 > X 2
E|--------------------------------|             /
B|----2---2-----1---1-1-1-1-2-2-2-|            /
G|1-1-1-1-1-1-1-1-1-1-1-1-1-1-1-1-|           /
D|--------------------------------|          /
A|--------------------------------|         /
E|--------------------------------|        /
                                          /
E|--------------------------------|      /
B|2-4-4-4-2-2-2-1---1-1-1-1-2-2---|     /
G|1-------1-1-1-1-1-1-1-1-1-1-1-1-|    /
D|--6-6-6-------------------------|   /
A|--------------------------------|  /
E|--------------------------------| /


Bridge

E|--------------------------------| \
B|--------------------------------|  \
G|--------------------------------|   \
D|--------------------------------|    \
A|1-------3---4-----------3---4---|     \
E|----------------2---------------|      \
                                          > X 2
E|--------------------------------|      /
B|--------------------------------|     /
G|--------------------------------|    /
D|--------------------------------|   /
A|----1---3---4---6---4---3---4---|  /
E|4-------------------------------| /


Verse
[ Tab from: http://www.guitartabs.cc/tabs/o/offspring/the_kids_arent_alright_tab_ver_16.html ]
 B flat m                           \
E|1-----------------------------1-|  \
B|2-----------------------------2-|   \
G|3-----------------------------3-|    \
D|3-----------------------------3-|     \
A|--------------------------------|      \
E|--------------------------------|       \
                                           \
  F sharp                                   \
E|2-----------------------------2-|          \
B|2-----------------------------2-|           \
G|3-----------------------------3-|            \
D|4-----------------------------4-|             \
A|4-----------------------------4-|              \
E|--------------------------------|               \
                                                   > X 2
 B flat 7                                         /
E|1-----------------------------1-|              /
B|2-----------------------------2-|             /
G|1-----------------------------1-|            /
D|3-----------------------------3-|           /
A|--------------------------------|          /
E|--------------------------------|         /
                                           /
 A flat                                   /
E|4-----------------------------4-|      /
B|4-----------------------------4-|     /
G|5-----------------------------5-|    /
D|6-----------------------------6-|   /
A|6-----------------------------6-|  /
E|--------------------------------| /


Chorus

  B flat m                          \
E|1-------------------------------|  \
B|2-------------------------------|   \
G|3-------------------------------|    \
D|3-------------------------------|     \
A|--------------------------------|      \
E|--------------------------------|       \
                                           \
  F sharp                                   \
E|2-------------------------------|          \
B|2-------------------------------|           \
G|3-------------------------------|            \
D|4-------------------------------|             \
A|4-------------------------------|              \
E|--------------------------------|               \
                                                   > X 2
  B flat 7                                        /
E|1-------------------------------|              /
B|2-------------------------------|             /
G|1-------------------------------|            /
D|3-------------------------------|           /
A|--------------------------------|          /
E|--------------------------------|         /
                                           /
  A flat                                  /
E|4-------------------------------|      /
B|4-------------------------------|     /
G|5-------------------------------|    /
D|6-------------------------------|   /
A|6-------------------------------|  /
E|--------------------------------| /


Bridge

Verse

Chorus


Solo

E|--------------------------------|
B|--------------------------------|
G|--------------------------------|
D|--------------------------------|
A|1---------------3---------------|
E|--------------------------------|

E|--------------------------------|
B|--------------------------------|
G|--------------------------------|
D|--------------------------------|
A|4---------------6-------8-------|
E|--------------------------------|

E|4-------6-------9-------11------|
B|--------------------------------|
G|--------------------------------|
D|--------------------------------|
A|--------------------------------|
E|--------------------------------|

E|13------15-------13-11-----9----|
B|--------------------------------|
G|--------------------------------|
D|--------------------------------|
A|--------------------------------|
E|--------------------------------|

E|13------13------13--------------|
B|--------------------------------|
G|--------------------------------|
D|--------------------------------|
A|--------------------------------|
E|--------------------------------|

E|11--9---4---11--9--4--4--1---4--|
B|--------------------------------|
G|--------------------------------|
D|--------------------------------|
A|--------------------------------|
E|--------------------------------|

E|9--9--9--9--9--9--4--1--3--4----|
B|--------------------------------|
G|--------------------------------|
D|--------------------------------|
A|--------------------------------|
E|--------------------------------|

E|4----9-----13-----11--9--13--11-|
B|--------------------------------|
G|--------------------------------|
D|--------------------------------|
A|--------------------------------|
E|--------------------------------|


Chorus


Ending

E|6-4-6-4-6-4-6-4-6-4-6-4-6-4-6---|
B|--------------------------------|
G|--------------------------------|
D|--------------------------------|
A|--------------------------------|
E|--------------------------------|

That's it!

Any questions or suggestions for me?
sebmajor@hotmail.com

cya
Comments