Offspring - The Kids Arent Alright Chords & Tabs

 

The Kids Arent Alright Chords & Tabs

Offspring Chords & Tabs

Version: 1 Type: Tab 4 ratings
1 star 2 stars 3 stars 4 stars 5 stars
comments

The Kids Arent Alright Tab

                               "The Kids Aren't Alright"
                                 By: The Offspring   
                                 Tabbed by: Rarfboy

Ok then.. Here we go!


Intro
|----------------------------------------------|
|----------------------------------------------|
|------6---6-----5---5-5-5-5/6-----------------|
|--8-8-8-8-8-8-8-8-8-8-8-8-8-8-----------------|
|----------------------------------------------|
|----------------------------------------------|

|----------------------------------------------|
|----------------------------------------------|
|------6---6-----5---5-5-5-5/6-----------------|
|--4-4-4-4-4-4-4-4-4-4-4-4-4-4-----------------|
|----------------------------------------------|
|----------------------------------------------|

|---------------------------------------------------------|
|---------------------------------------------------------|
|------6---6-----5---5-5-5-5/6--6-8-8-8-6-6-5-5-5-5-5-5/6-|  Do all that
|--6-6-6-6-6-6-6-6-6-6-6-6-6-6--6-6-6-6-6-6-6-6-6-6-6-6---|     2x
|---------------------------------------------------------|
|---------------------------------------------------------|

Pre Verse Riff
|----------------------------------------------|
|----------------------------------------------|
|----------------------------------------------|
|----------------------------------------------| 2x
|-1~~-3-4-----3-4------3-4-6-4-3-4-------------|
|---------2~~------4-6-------------------------|

Verse (I didn't type out all the palm mutes... Just listen to the song
        and figure it out for yourself)
|------------------------------------|
|------------------------------------|
|-------------------6xxxxx6----------|
|---8xxxxx8-4xxxxx4-6xxxxx6-6xxxxx6--| 2x
|---8xxxxx8-4xxxxx4-4xxxxx4-6xxxxx6--|
|---6xxxxx6-2xxxxx2---------4xxxxx4--|

[ Tab from: http://www.guitartabs.cc/tabs/o/offspring/the_kids_arent_alright_tab.html ]
|------------------------------------------------------|
|------------------------------------------------------|
|-----------------------11-11-11-11-11-11-11-11-11-11--|      
|----8-8-8-8-8-8-8-8-8--11-11-11-11-11-11-11-11-11-11--|
|----8-8-8-8-8-8-8-8-8--9--9--9--9--9--9--9--9--9--9---|
|----6-6-6-6-6-6-6-6-6---------------------------------|

then..

|------------------------------------------------------|
|------------------------------------------------------|
|--6-6-6-6-6-6-6-6-6-6---------------------------------| 2x
|--6-6-6-6-6-6-6-6-6-6--6-6-6-6-6-6-6-6-6-6------------|
|--4-4-4-4-4-4-4-4-4-4--6-6-6-6-6-6-6-6-6-6------------|
|-----------------------4-4-4-4-4-4-4-4-4-4------------|

Solo (This is how I play it..)
|-------------------------------------------16----------|
|-----------------------------9-11-14-16-18----16h18-16-|
|-------------------------------------------------------|
|-------------------------------------------------------|
|-1~~-3-3-3--4-4-4--6-6-6--8----------------------------|
|-------------------------------------------------------|

|---------------------------------------------------|
|--14-16-18-18-18~-18-16-14----14h16-14-------------|
|---------------------------13----------13-13-13-11-|
|---------------------------------------------------|
|---------------------------------------------------|
|---------------------------------------------------|

|-----------------------------------------------------------|
|--------14-14-14-14-14----------14-16-18-18-18-16-14-18-16-|
|--13-15-------------------13-11----------------------------|
|-----------------------15----------------------------------|
|-----------------------------------------------------------|
|-----------------------------------------------------------|

Ok there... I'm done... If I messed up, sorry bout that, but you 
can email me a rarfboy@hotmail.com


Comments