Offspring - The Kids Arent Alright Chords & Tabs

 

The Kids Arent Alright Chords & Tabs

Offspring Chords & Tabs

Version: 6 Type: Bass Tab 0 ratings
1 star 2 stars 3 stars 4 stars 5 stars
comments

The Kids Arent Alright Bass Tab

Tabbed By: Daniel Henderson

Intro x2

G|---------------------------------------------------------------------------
D|---------------------------------------------------------------------------
A|1----134-----34------------------------------------------------------------
E|--------2---2----444666888999111111999888999-------------------------------

Those are elevens!
Verse x2

G|---------------------------------------------------------------------------
D|---------------------------------------------------------------------------
A|11111111--------44444444---------------------------------------------------
E|--------22222222--------44444444-------------------------------------------

Chorus x2
[ Tab from: http://www.guitartabs.cc/tabs/o/offspring/the_kids_arent_alright_btab_ver_6.html ]
G|---------------------------------------------------------------------------
D|--------44444444-----------------------------------------------------------
A|11111111--------44444444---------------------------------------------------
E|------------------------44444444-------------------------------------------

Intro
Verse
Chorus

Bridge x1
G|---------------------------------------------------------------------------
D|---------------------------------------44444444----------------------------
A|1--13--34--468-44444444--------11111111--------44444444--------------------
E|-----------------------44444444------------------------44444444------------

Chorus

Ending x1
G|---------------------------------------------------------------------------
D|---------------------------------------------------------------------------
A|1~-------1-----------------------------------------------------------------
E|---------------------------------------------------------------------------

Thats it. its easy, its perfect.
Comments