Offspring - The Kids Arent Alright Chords & Tabs

 

The Kids Arent Alright Chords & Tabs

Offspring Chords & Tabs

Version: 1 Type: Bass Tab 1 rating
1 star 2 stars 3 stars 4 stars 5 stars
comments

The Kids Arent Alright Bass Tab

"The Kids Aren't Alright" by The Offspring
Song: The Kids Aren't Alright
Artist: The Offspring
Album: Americana

Intro/Bridge/During solo
G-----------------
D-----------------
A--1-------4------
E------2-------4--
(Let each note ring..)
[ Tab from: http://www.guitartabs.cc/tabs/o/offspring/the_kids_arent_alright_btab.html ]
Verse
G-------------------------------------------------------------------
D-------------------------------------------------------------------
A--1-1-1-1-1-1-1-1-----------------4-4-4-4-4-4-4-4------------------
E------------------2-2-2-2-2-2-2-2-----------------4-4-4-4-4-4-4-4--

Chorus
G-------------------------------------------------------------------
D------------------4-4-4-4-4-4-4-4----------------------------------
A--1-1-1-1-1-1-1-1-----------------4-4-4-4-4-4-4-4------------------
E--------------------------------------------------4-4-4-4-4-4-4-4--


This tab was created by Christian Mangs. Email me at: 
Shadow145@hotmail.com 

Comments