Offspring - Staring At The Sun Chords & Tabs

 

Staring At The Sun Chords & Tabs

Offspring Chords & Tabs

Version: 4 Type: Tab 0 ratings
1 star 2 stars 3 stars 4 stars 5 stars
comments

Staring At The Sun Tab

        ------------------------------------------------------------
                 Staring at the Sun - The Offspring           
      ------------------------------------------------------------



 * - pm (palm mute)
 b - bend
 r - return
 x - scratch
 : - let ring


+ 1st guitar - dexter holland
+ 2nd guitar - noodles           # - both guitars play the same




+ Intro          
e|-----------------|----------------------|---------------|
B|-----------------|----------------------|---------------|
G|--777b5r777------|-77-1010----55-6------|-101010-33-55--|
D|--777b5r777-(x4)-|-77-1010-55-55-6-(x3)-|-101010-33-55--|
A|--555b3r555------|-55--8-8-55-33-4------|--8-8-8-11-33--|
E|-----------------|---------33-----------|---------------|
    *********        *************        ******

[ Tab from: http://www.guitartabs.cc/tabs/o/offspring/staring_at_the_sun_tab_ver_4.html ]
+ pre-chorus - chorus
e|-----------------------------------------------------|
B|---------------------------------------------------#-|     # - at second time
G|--7777-10101010------5555-6------77-1010-1212-1414-7:|
D|--7777-10101010-5555-5555-6-(x3)-77-1010-1212-1212-7:| (x2)
A|--5555--8-8-8-8-5555-3333-4------55--8-8-1010-1212-5:|
E|----------------3333---------------------------------|


+ verse 1
e|-----------------------------------|
B|-----------------------------------|
G|--77-1010----55------101010-33-55--|
D|--77-1010-55-55-(x3)-101010-33-55--|
A|--55--8-8-55-33-------8-8-8-11-33--|
E|----------33-----------------------|



+ verse 2
e|---------------------------------|
B|---------------------------------|
G|--77-1010----55------7-10-12-14--|
D|--77-1010-55-55-(x3)-7-10-12-14--|
A|--55--8-8-55-33------5--8-10-12--|
E|----------33---------------------|



+ chorus 2
e|---------------------------|
B|---------------------------|
G|--77x1010x1212-33-55-------|
D|--77x1010x1212-33-55-(x2)--|
A|--55x-8-8x1010-11-33-------|
E|---------------------------|


+ verse 1


+ verse 2


+ chorus 2


+ interlude
e|----------------------------------|
B|----------------------------------|
G|--7--57--5567--5567-101010-33-55--|
D|--7--57--5567--5567-101010-33-55--|
A|--5--35--3345--3345--8-8-8-11-33--|
E|----------------------------------|



+ pre-chorus - chorus





+ tabber
   
+ felipe silva
+ santiago, chile
+ 15

+ pipe_@walla.com
Comments