Offspring - Staring At The Sun Chords & Tabs

 

Staring At The Sun Chords & Tabs

Offspring Chords & Tabs

Version: 1 Type: Tab 0 ratings
1 star 2 stars 3 stars 4 stars 5 stars
comments

Staring At The Sun Tab

#----------------------------------PLEASE NOTE--------------------------------#
#This file is the author's own work and represents their interpretation of the#
#song. You may only use this file for private study, scholarship, or research.#
#-----------------------------------------------------------------------------#
#-- File created with Instab - http://www.pconline.com/~smcarey/instab.html --#
#-----------------------------------------------------------------------------#

Author/Artist: Offspring
Title: Staring at the sun
Album: Americana
Transcribed by: Michael Woodard
Email: michael_woodard

------------------------------------------------------------------------------
------------------------------------------------------------------------------
-7-7-7---5--------------------------------------------------------------------
-7-7-7---5--------------------------------------------------------------------
-5-5-5---3--------------------------------------------------------------------
------------------------------------------------------------------------------
 Play 4 times for intro PALM MUTE                                             
[ Tab from: http://www.guitartabs.cc/tabs/o/offspring/staring_at_the_sun_tab.html ]
------------------------------------------------------------------------------
------------------------------------------------------------------------------
--7----10------------------------5--------------------------------------------
--7----10-------------5----------5--------------------------------------------
--5----8--------------5----------3--------------------------------------------
----------------------3-------------------------------------------------------
 "Baby love is like a ride on a freeway..."  PALM MUTE                        

------------------------------------------------------------------------------
------------------------------------------------------------------------------
-----10-------------------------------5---------------------------------------
-----10-------------------8-----------5---------------------------------------
-----8--------------------8-----------3---------------------------------------
--------------------------6---------------------------------------------------
 "It brings me down but I won't let them..."  PALM MUTE Repeat till fast      

------------------------------------------------------------------------------
------------------------------------------------------------------------------
-7-7-7--10-10-10-12-12-12--14-14-14-------------------------------------------
-7-7-7--10-10-10-12-12-12--14-14-14-------------------------------------------
-5-5-5--8--8--8--10-10-10--12-12-12-------------------------------------------
------------------------------------------------------------------------------
 part  ". .. As  your staring at the sun..."    The rest is the same no PM    

Comments