Offspring - Special Delivery Chords & Tabs

 

Special Delivery Chords & Tabs

Offspring Chords & Tabs

Version: 4 Type: Tab 0 ratings
1 star 2 stars 3 stars 4 stars 5 stars
comments

Special Delivery Tab

Tablatura de NICO M. (nicokbbl@hotmail.com)

Artista: The Offspring
Cancion: Special Delivery
Album: Conspiracy Of One (2000) 



  Hey now do you see me down the way
  Been watching you everyday
  In my car on your street is where I stay
  I know you better that way
  One day I'll be meeting you for real
  You'll feel bad like I feel 


1|--------------------------------------------------------------------|
2|--------------------------------------------------------------------|
3|--9-9-9-7-9-9--9-11-9-9-11-11-13---13-13-13-13-9-9-13-13-13-13-9-9--|x2
4|--9-9-9-7-9-9--9-11-9-9-11-11-13---13-13-13-13-9-9-13-13-13-13-9-9--|
5|--7-7-7-5-7-7--7-9--7-7-9--9--11---11-11-11-11-7-7-11-11-11-11-7-7--|
6|--------------------------------------------------------------------|


   It'll blow you away - You're gonna fall for me
   And the voices told me
   To blow you away - You're gonna fall for me 




   Hey now well I'm knocking on your door
   This special delivery is yours
   My infatuation it's true
   Hello, I got something for you



1|--------------------------------------------------------------------|
2|--------------------------------------------------------------------|
3|--9-9-9-7-9-9--9-11-9-9-11-11-13---13-13-13-13-9-9-13-13-13-13-9-9--|x3
4|--9-9-9-7-9-9--9-11-9-9-11-11-13---13-13-13-13-9-9-13-13-13-13-9-9--|
5|--7-7-7-5-7-7--7-9--7-7-9--9--11---11-11-11-11-7-7-11-11-11-11-7-7--|
6|--------------------------------------------------------------------|

[ Tab from: http://www.guitartabs.cc/tabs/o/offspring/special_delivery_tab_ver_4.html ]
   It?ll blow you away - You're gonna fall for me
   And the voices told me
   To blow you away - You're gonna fall for me
   If you hadn't sold me
   I'd still be away - You're right in front of me

1|---------------------------------------------------------|
2|---------------------------------------------------------|
3|--7-7-7-7-7-7-7-7-7-7-5-5-5-5-5-5-9-7-9-7-9--------------|
4|--7-7-7-7-7-7-7-7-7-7-5-5-5-5-5-5-9-7-9-7-9--------------|
5|--5-5-5-5-5-5-5-5-5-5-3-3-3-3-3-3-7-5-7-5-7--------------|
6|---------------------------------------------------------|


   Then, I'll be on my way
   Breathing you okay


   Can't break from my sins
   Cannot pray 


1|-----------------------------------------------------------|
2|-----------------------------------------------------------|
3|--5x-5x-5x-5x-5x-5x-5x-5x-5x-5x-5x-5x-5x-5x-5x-5x-5x--5-5--|
4|--5x-5x-5x-5x-5x-5x-5x-5x-5x-5x-5x-5x-5x-5x-5x-5x-5x--5-5--|
5|--3x-3x-3x-3x-3x-3x-3x-3x-3x-3x-3x-3x-3x-3x-3x-3x-3x--3-3--|
6|-----------------------------------------------------------|


   But you can't kill a man when he's got no hope
   You can't kill a man when he's got no hope



1|--------------------------------------------------------------------|
2|--------------------------------------------------------------------|
3|--9-9-9-7-9-9--9-11-9-9-11-11-13---13-13-13-13-9-9-13-13-13-13-9-9--|x3
4|--9-9-9-7-9-9--9-11-9-9-11-11-13---13-13-13-13-9-9-13-13-13-13-9-9--|
5|--7-7-7-5-7-7--7-9--7-7-9--9--11---11-11-11-11-7-7-11-11-11-11-7-7--|
6|--------------------------------------------------------------------|


   It?ll blow you away - You're gonna fall for me
   And the voices told me
   To blow you away - You're gonna fall for me
   If you hadn't sold me
   I'd still be away - You're right in front of me
Comments