Offspring - Special Delivery Chords & Tabs

 

Special Delivery Chords & Tabs

Offspring Chords & Tabs

Version: 1 Type: Tab 0 ratings
1 star 2 stars 3 stars 4 stars 5 stars
comments

Special Delivery Tab

Special Delivery by The Offspring. Album The Offspring - Conspiracy Of One(2000).
Any Questions Comments send me to briets@email.ru
[ Tab from: http://www.guitartabs.cc/tabs/o/offspring/special_delivery_tab.html ]
# Bass Intro1 # X8                      # Bass Intro2 #   * = play X6
|----------------------------------->   >-------------------------------------------|
|--------------------------2-2-4-4-->   >-------------------------------------------|
|----------------------------------->   >--------------------------------------*-*--|
|-/0-2-2-2--0-2-2-2--0-2-2-2-------->   >-5-7-7-7--5-7-7-7--5-7-7-7-5-7-5-2-0-5-12--|
>
>
# Chorus # play X2  % = play X8  () = play only in second and fird chorus! 
E---------------------------------------------------------------------------------------------|
B---------------------------------------------------------------------------------------------|
G-10-10-8-10-10-10-13-10-8-10-10-10-10-10-10--------------8-8-8-8-8-8--(6%)-(3%)-(8--8-8-8-8)-|
D-10-10-8-10-10-10-13-10-8-10-10-10-10-10-10--6-6-6-6-6-6-8-8-8-8-8-8--(6%)-(3%)-(8--8-8-8-8)-|
A--8--8-6--8--8--8-11--8-6--8--8--8--8--8--8--6-6-6-6-6-6-6-6-6-6-6-6--(4%)-(1%)-(6--6-6-6-6)-|
E---------------------------------------------4-4-4-4-4-4-------------------------------------|
>
After verse play # Chorus # X3 
>
# Bridge #      P-M = palm-mute
E---------------------------------------------------------------|
B---------------------------------------------------------------|
G--------------------------------------------------------10-10--|
D--4-4-4-4-4-4-4-4-4-4-4-4-4-4-4-4-4-4-4-4-4-4-4-4-4-4-4-10-10--|
A--4-4-4-4-4-4-4-4-4-4-4-4-4-4-4-4-4-4-4-4-4-4-4-4-4-4-4--8--8--|
E--2-2-2-2-2-2-2-2-2-2-2-2-2-2-2-2-2-2-2-2-2-2-2-2-2-2-2--------|
>   \___________________________________________________/
>                          P-M
Play # Chorus # X3 (last chord x688xx)!!!

Tabbed by Briets(Andrei)



Comments