Offspring - Something To Believe In Chords & Tabs

 

Something To Believe In Chords & Tabs

Offspring Chords & Tabs

Version: 1 Type: Tab 0 ratings
1 star 2 stars 3 stars 4 stars 5 stars
comments

Something To Believe In Tab

   
 -------------------------------------------------------------------------------
	             Something to Believe In - The Offspring
-------------------------------------------------------------------------------

Tabbed by: dan c
Email: danc_accuratetabs@yahoo.com

Tuning: STANDARD EADGBE

INTRO    MAIN PART
e|---13\------|--------------------------------------------------------------|
B|---13\\-----|--------------------------------------------------------------|
G|------\\----|o-10------------------------5--8-8-8-8-8-8--------------------|
D|-------\\---|o-10--2--3--5-5-5-6--6-6-6--5--8-8-8-8-8-8--8-8-8-------------|
A|--------\\--|---8--2--3--5-5-5-6--6-6-6--3--6-6-6-6-6-6--8-8-8-------------|
E|-0-------\\-|------0--1--3-3-3-4--4-4-4------------------6-6-6-------------|

  AFTER THE MAIN PART THE FIRST TIME  PLAY::
e|---------------------------------------------------------------------------|
B|---------------------------------------------------------------------------|
G|-10---10-10-10-10-10---10-10--10--10---10--10-10-10-10-10------------------|
D|-10---10-10-10-10-10---10-10--10--10---10--10-10-10-10-10------------------|
A|--8----8--8--8--8--8----8--8---8---8----8---8--8--8--8--8------------------|
E|---------------------------------------------------------------------------|

AFTER THE MAIN PART THE SECOND TIME PLAY
e|-----------------------------------------------------------------------------|
B|-----------------------------------------------------------------------------|
G|--10-10-10-10-10-10-10-----------8-8-------------------------8-8-------------|
D|--10-10-10-10-10-10-10-6-6-6-6-6-8-8-8-8-8-8-8-3-3-6-6-6-6-6-8-8-888-3-666---|
A|---8--8--8--8--8--8--8-6-6-6-6-6-6-6-8-8-8-8-8-3-3-6-6-6-6-6-6-6-888-3-666---|
E|-----------------------4-4-4-4-4-----6-6-6-6-6-1-1-4-4-4-4-4-----666-1-444---|
PM                       ****************************************************  
VERSE:
e|---------------------------------------------------------------------------|
B|---------------------------------------------------------------------------|
G|----8888--------------8888--------------8888--------------8888-------------|
D|-6--8888-888-3333-666-8888-888-3333-666-8888-888-3333-666-8888-888-3333----|
A|-6--6666-888-3333-666-6666-888-3333-666-6666-888-3333-666-6666-888-3333----|
E|-4-------666-1111-444------666-1111-444------666-1111-444------666-1111----|

PRECHORUS
e|----------------------------------------------------------------------------|
B|----------------------------------------------------------------------------|
G|---------88888--------------------88888------------------------88888--33333-|
D|--66666--88888--888--333-/-66666--88888-88888--33333--/--66666-88888--33333-|
A|--66666--66666--888--333-/-66666--66666-88888--33333--/--66666-66666--11111-|
E|--44444---------666--111-/-44444--------66666--11111--/--44444--------------|

e|---------------------------------------------------------------------------|
B|---------------------------------------------------------------------------|
G|-------------------88888-----------5--5--5--5--5--5--5--5--5---------------|
D|--33333--/--66666--88888--88888----5--5--5--5--5--5--5--5--5---------------|
A|--33333--/--66666--66666--88888----3--3--3--3--3--3--3--3--3---------------|
E|--11111--/--44444---------66666--------------------------------------------|
[ Tab from: http://www.guitartabs.cc/tabs/o/offspring/something_to_believe_in_tab.html ]
CHORUS                PLAY 3X
e|------------------------------------------------|
B|------------------------------------------------|
G|10-10-10-10--8----10-10-------8-8-8-8---12--13--|
D|10-10-10-10--8----10-10--6-6--8-8-8-8---12--13--|
A|-8--8--8--8--6--/--8--8--6-6--6-6-6-6---10--11--|
E|-------------------------4-4--------------------|

FILL
e|---------------------------------------------------------------------------|
B|---------------------------------------------------------------------------|
G|-10-10-10-10--8----10-10-------8-8-8-8-----------10------------------------|
D|-10-10-10-10--8----10-10--6-6--8-8-8-8--8-8-8-8--10--INTO BRIDGE-----------|
A|--8--8--8--8--6--/--8--8--6-6--6-6-6-6--8-8-8-8---8------------------------|
E|--------------------------4-4-----------6-6-6-6----------------------------|

BRIDGE
e|---------------------------------------------------------------------------|
B|----------------------------------------------------REPEAT ONCE THEN PLAY--|
G|-1010--------------------5-5-5--8--8-8-8-8-8--------10-10-10-10-10-10---^--|
D|-1010---3--5-5-5--6---6--5-5-5--8--8-8-8-8-8--8--8--10-10-10-10-10-10---^--|
A|--8-8---3--5-5-5--6---6--3-3-3--6--6-6-6-6-6--8--8---8--8--8--8--8--8---^--|
E|------0-1--3-3-3--4---4-----------------------6--6-------------------------|

e|----------------|----------------------------------------------------------|
B|----------------|----------------------------------------------------------|
G|----------------|----------------------------------------------------------|
D|------6--6--6---|-----------------3::--------------------------------------|
A|---5--6--6--6---|---8--8--8----5--3::--USE BAR >>>--bend down--------------|
E|---5--4--4--4---|--------------5--1::--------------------------------------|
PM     *********

Where they lead you will follow
Well I guess that's just the way it goes
   (with some triplets, all palm muted)
                                                            E A D G
F5     G5  Ab5  C5 Eb5           Bb5     F5           D5/A (5-5-7-7
And if you look away you'll be doin what they say
^^^^^^^^^^^^^^^^^^^^^^^^^^^^^^^^^^^^^^^^^^^^^^^^^^^^^^^^^^^^^^^^^^^^
And if you look alive you'll be singled out and tried
F5        G5     Ab5     Eb5             F5
If you take home anything let it be your will to think
F5          G5   Ab5        C5  Eb5      Bb5      F5
the more cynical you become the better off YOU'll be

OUTRO
e|----------------------------------------------------------------------------|
B|----------------------------------------------------------------------------|
G|------------8--8-----------------------------------8--8---------------------|
D|--6--6--6---8--8---8--8--8--8---3-3----6--6--6--6--8--8--8//--3--3--3--3--3:|
A|--6--6--6---6--6---8--8--8--8---3-3----6--6--6--6--6--6--8//--3--3--3--3--3:|
E|--4--4--4----------6--6--6--6---1-1----4--4--4--4--------6//--1--1--1--1--1:|

TABBED BY DAN C AND STEVO SERACUZZI FOR ULTIMATE-GUITAR.COM
DANC_ACCURATETABS@YAHOO.COM

| /  slide up
| \  slide down
| h  hammer-on
| p  pull-off
| ~  vibrato
| +  harmonic
| x  Mute note


===============================================================================
Comments