Offspring - Something To Believe In Chords & Tabs

 

Something To Believe In Chords & Tabs

Offspring Chords & Tabs

Version: 2 Type: Bass Tab 0 ratings
1 star 2 stars 3 stars 4 stars 5 stars
comments

Something To Believe In Bass Tab

The Offspring's Something to believe in
The greatest band in the world and now on to the tab:


Intro
|------------------------------------------------------------------|
|----33-333--------------------------------------------------------|
|--------------------------33-333--6---------88-888----------------|
|------------1--33-333--4-------------66-666-----------------------|

|------------------------------------------------------------------|
|----33-333--------------------------------------------------------|
|---------------------------33-333--6---------88-888---------------|
|------------1--33-333--4----------------6-------------------------|
[ Tab from: http://www.guitartabs.cc/tabs/o/offspring/something_to_believe_in_btab_ver_2.html ]
Verse (2 rythms)
|------------------------------------------------------------------|
|------------------------------------------------------------------|
|-------------66-------1111----------------------------------------|
|-------4444-------------------11----------------------------------|

Chorus
|------------------------------------------------------------------|
|-------------3-----------------6----------------------------------|
|---------------------------6--------6-----------------------------|
|--------1-----------4---------------------------------------------|


Thats it.  You can figure out what goes where pretty easy its not that
tough.  email me for comments niabok94@aol.com
Comments