Offspring - Smash Chords & Tabs

 

Smash Chords & Tabs

Offspring Chords & Tabs

Version: 1 Type: Tab 0 ratings
1 star 2 stars 3 stars 4 stars 5 stars
comments

Smash Tab

   
#----------------------------------PLEASE NOTE---------------------------------#
#This file is the author's own work and represents their interpretation of the #
#song. You may only use this file for private study, scholarship, or research. #
#------------------------------------------------------------------------------##


Atist:The Offspring
Title:Smash
Album:Smash

Tabbed by Pelle Anderson,SWE (bajengrabb@hotmail.com)

Standard tuning: E,A,D,G,B,E


Verse

e------------------------------------------------|
B------------------------------------------------|
G------------------------------------------------|
D-10-10-10-10-10-10-6-6--------------------------| 
A-8--8--8--8--8--8--4-4-8-8-8-8-8-8-10-10--------|
E-----------------------6-6-6-6-6-6-8--8---------|

Chorus
[ Tab from: http://www.guitartabs.cc/tabs/o/offspring/smash_tab.html ]
e-------------------------|-----------------------------|
B-------------------------|-----------------------------|
G-------------------------|-----------------------------|
D-------------8-8-8-8-8-8-|-6-6-6-6-6-6-6-6-6-6-8-8-8-8-|  
A-6-6-6-6-6-6-6-6-6-6-6-6-|-4-4-4-4-4-4-4-4-4-4-6-6-6-6-|
E-4-4-4-4-4-4-------------|-----------------------------|

e-------------------------|-----------------------------|
B-------------------------|-----------------------------|
G-------------------------|-----------------------------|
D-------------8-8-8-8-8-8-|-6-6-6-6-6-6-6-6-6-6-5-5-5-5-|
A-6-6-6-6-6-6-6-6-6-6-6-6-|-4-4-4-4-4-4-4-4-4-4-3-3-3-3-|
E-4-4-4-4-4-4-------------|-----------------------------|

e------------|------------|
B------------|------------|
G------------|------------|
D------------|------------|
A--3-4-3-4-3-|--3-4-3-4-3-|
E-1----------|-1----------|

Interlude

e----------------------------------|------------------------|
B----------------------------------|------------------------|
G-10-10--8-8--6-6--8-8--9-9--10-10-|-10-10--8-8--6-6--8---8-|
D-10-10--8-8--6-6--8-8--9-9--10-10-|-10-10--8-8--6-6--8-8-8-|
A----------------------------------|--------------------8---|
E----------------------------------|------------------------|


This is the song:

Verse (x4)
Chorus (x2)
Verse (x4)
Chorus (x2)
Interlude
Verse (x2)
Chorus (x4)

Thank you! Hope you'll enjoy it.
Comments