Offspring - Smash It Up Chords & Tabs

 

Smash It Up Chords & Tabs

Offspring Chords & Tabs

Version: 2 Type: Tab 0 ratings
1 star 2 stars 3 stars 4 stars 5 stars
comments

Smash It Up Tab

hello. good song from Offspring on the Batman Forever Soundtrack.

: - let ring
pm - palm mute
/ \ - slide

Intro
play the first part twice and after the second time play the last part faster and louder

|-0:---2:---0:---0:---|-0-0-0-0-0-0-0-0-0-0-0-0-0-0-0-0-0-0-|
|-0:---0:---3:---0:---|-0-0-0-0-0-0-0-0-0-0-0-0-0-0-0-0-0-0-|
|-0:---0:---0:---0:---|-0-0-0-0-0-0-0-0-0-0-0-0-0-0-0-0-0-0-|
|-2:---2:---2:---2:---|-2-2-2-2-2-2-2-2-2-2-2-2-2-2-2-2-2-2-|
|-2:---2:---2:---2:---|-2-2-2-2-2-2-2-2-2-2-2-2-2-2-2-2-2-2-|
|-0:---0:---0:---0:---|-0-0-0-0-0-0-0-0-0-0-0-0-0-0-0-0-0-0-|

then play it once, then repeat the second part another 3 times

|-------|-3-3-3-3-3-3--------------0-0-0-0--0-0-0--0-0-0--0-0-0--|
|-------|-3-3-3-3-3-3-7-7-7-7-7-7--0-0-0-0--0-0-0--0-0-0--0-0-0--|
|-5-5-5-|-6-6-6-6-6-6-7-7-7-7-7-7--0-0-0-0--0-0-0--0-0-0--0-0-0--|
|-5-5-5-|-5-5-5-5-5-5-7-7-7-7-7-7--2-2-2-2--2-2-2--2-2-2--2-2-2--|
|-3-3-3-|-5-5-5-5-5-5-5-5-5-5-5-5--2-2-2-2--2-2-2--2-2-2--2-2-2--|
|-------|-3-3-3-3-3-3--------------0-0-0-0--0-0-0--0-0-0--0-0-0--|

Chorus  

|-----------------------------------------------------------|
|-----------------------------------------------------------|
|-----------------------------------------------------------|
|-5-5-5-3-3-3-3-7-7-7-3-3-3-3-5-5-5-3-3-3-3-5-5-5-5-5-5-5-5-|
|-5-5-5-3-3-3-3-7-7-7-3-3-3-3-5-5-5-3-3-3-3-5-5-5-5-5-5-5-5-|
|-3-3-3-1-1-1-1-5-5-5-1-1-1-1-3-3-3-1-1-1-1-3-3-3-3-3-3-3-3-|

verse

          pm_________________________________________________
|------------------------------------------------------------
|------------------------------------------------------------
|----------5-5-5-5-5-5-5-5-5-5-5-5---------------------------
|-5-5-5-5--5-5-5-5-5-5-5-5-5-5-5-5-5-5-5-5-5-5-5-5-5-5-5-5-5-
|-5-5-5-5--3-3-3-3-3-3-3-3-3-3-3-3-5-5-5-5-5-5-5-5-5-5-5-5-5-
|-3-3-3-3--------------------------3-3-3-3-3-3-3-3-3-3-3-3-3-
[ Tab from: http://www.guitartabs.cc/tabs/o/offspring/smash_it_up_tab_ver_2.html ]
pm________________________________________________| 
 -------------------------------------------------|
 -------------------------------------------------|
 -5-5-5-5-5-5-5-5-5-5-5-5-------------------------|
 -5-5-5-5-5-5-5-5-5-5-5-5-5-5-5-5-5-5-5-5-5-5-5-5-|
 -3-3-3-3-3-3-3-3-3-3-3-3-5-5-5-5-5-5-5-5-5-5-5-5-|
 -------------------------3-3-3-3-3-3-3-3-3-3-3-3-| 

chorus 2

|------------------------------------------------------------------|
|------------------------------------------------------------------|
|--5-5-5-5---------5-5-5-5---------5-5-5-5---------7-7-7-7-7-7-7-7-|
|--5-5-5-5-9-9-9-9-5-5-5-5-5-5-5-5-5-5-5-5-9-9-9-9-7-7-7-7-7-7-7-7-|
|--3-3-3-3-9-9-9-9-3-3-3-3-5-5-5-5-3-3-3-3-9-9-9-9-5-5-5-5-5-5-5-5-|
|----------7-7-7-7---------3-3-3-3---------7-7-7-7-----------------|

bridge

|-------------------------------------------------------------------------|
|----------------------------------------12-15-12-15-12-15-12-15-12-15-12-|
|------/9---0-0-12-0-0-9-0-0-12-0-0-9-12----------------------------------|
|-2:----------------------------------------------------------------------|
|-2:----------------------------------------------------------------------|
|-0:----------------------------------------------------------------------|


|-----------------------------|
|-----------------------------|
|---------------------9-9-9-9-|
|-4-4-4-4-4-4-4-7-7-7-9-9-9-9-|
|-4-4-4-4-4-4-4-7-7-7-7-7-7-7-|
|-2-2-2-2-2-2-2-5-5-5---------|

|------------------|
|------------------|
|------------------|
|-9:------7:-------|
|-9:------7:-------|
|-7:------5:-------|

outro

|-------------------------------------------------------|
|-------------------------------------------------------|
|---------5-5-5-5--------------------------5-5-5-5------|
|-5-5-5-5-5-5-5-5-5-5-5-5-5-5-5-5--5-5-5-5-5-5-5-5-5:---|
|-5-5-5-5-3-3-3-3-5-5-5-5-5-5-5-5--5-5-5-5-3-3-3-3-5:---|
|-3-3-3-3---------3-3-3-3-3-3-3-3--3-3-3-3---------3:---|

well thats about it i think. if you don't think so then e-mail me at bobby544@mail2rob.com
Comments