Offspring - Session Chords & Tabs

 

Session Chords & Tabs

Offspring Chords & Tabs

Version: 3 Type: Bass Tab 0 ratings
1 star 2 stars 3 stars 4 stars 5 stars
comments

Session Bass Tab

   
Song: Session
Artist: The Offspring
Album: Ignition
Tabbed By: Jimmy B.

This is one the best Offspring songs, and I saw them do it live!!!!
Well, here's how you play it.

*=let it ring

Intro/Verse

G:----------------------|-------------------------------------|
D:----------------------|-------------------------------------|
A:--55-6-88-9-----------|-55555556-88888889-------------------|
E:------------88-9-33-4-|-------------------88888889-33333334-|

Chorus

G:---------------------------------|
D:---------------------------------|
A:-55-5-77-88-55-5-77-88-----------|
E:-----------------------8888-3333-|
[ Tab from: http://www.guitartabs.cc/tabs/o/offspring/session_btab_ver_3.html ]
G:-----------------------------------------|
D:-----------------------------------------|
A:-55-5-77-88-55-5-77-88-------------------|
E:-----------------------88888888-33333333-|

G:--------------------|
D:--------------------|
A:-5-345-345-345-3455-|
E:--------------------|

Bridge

G:---------------|--------------|
D:---------------|--------------|
A:-555----888----|--------------|
E:-----88-----88-|-6*---------8-|

That's the whole song. I'm 99% sure that this tab is correct, but 
you might want to play the rhythm a little different. Email me at 
thebabblingshaman@hotmail.com with any comments, praise or abuse.
Comments