Offspring - Self Esteem Chords & Tabs

 

Self Esteem Chords & Tabs

Offspring Chords & Tabs

Version: 2 Type: Tab 0 ratings
1 star 2 stars 3 stars 4 stars 5 stars
comments

Self Esteem Tab

#----------------------------------PLEASE NOTE---------------------------------#
#This file is the author's own work and represents their interpretation of the #
#song. You may only use this file for private study, scholarship, or research. #
#------------------------------------------------------------------------------#

Artist: The Offspring
Song: Self Esteem
Tabbed by: John Leadman 



Riff 1:

   1     +     2     +     3     +     4     +        
 -------------------------------------------------
 -------------------------------------------------
 -------------------------10-10-10----10----10-10-
 --7-----------7-----7--7-10-10-10----10----10-10-
 --7-----------7-----7--7--8--8--8-----8-----8--8-
 --5-----------5-----5--5-------------------------


   1     +     2     +     3     +     4     +
 -------------------------------------------------
 -------------------------------------------------
 --5-----------5-----5--5-------------------------
 --5-----------5-----5--5--5--5--5-----5-----5--5-
 --3-----------3-----3--3--5--5--5-----5-----5--5-
 --------------------------3--3--3-----3-----3--3-
                           

Riff 2:
   1     +     2     +     3     +     4     +
 -------------------------------------------------
 -------------------------------------------------
 -------------------------------------------------
 --3-----------3-----3-----3-----3-----3-----3----
 --3-----------3-----3-----3-----3-----3-----3----
 --1-----------1-----1-----1-----1-----1-----1----


   1     +     2     +     3     +     4     +    1
 ---------------------------------------------------
 ---------------------------------------------------
 --------------------------------5--------5---------
 --3-----3-----3-----3-----3/-5--5-----5--5----5/-7-
 --3-----3-----3-----3-----3/-5--3-----5--3----5/-7-
 --1-----1-----1-----1-----1/-3--------3-------3/-5-


Riff 3:
   1     +     2     +     3     +     4     +
 -------------------------------------------------
 -------------------------------------------------
 ----------------------12-12-12-12-------12-\-----
 ----------------------12-12-12-12-------12-\-----
 ----------------------10-10-10-10-------10-\-----
 -------------------------------------------------



Riff 3a:
   1     +     2     +     3     +     4     +
 -------------------------------------------------
 -------------------------------------------------
 ----------------------12-12-12-12-------12-------
 ----------------------12-12-12-12-------12--5--5/
 ----------------------10-10-10-10-------10--5--5/
 --------------------------------------------3--3/
                                            pm


Riff 3b:
   1     +     2     +     3     +     4     +
 -------------------------------------------------
 -------------------------------------------------
 -------------------------------------------------
 --------------------------------------------5--5/
 --------------------------------------------5--5/
 --------------------------------------------3--3/
                                            pm


Riff 4:
   1     +     2     +     3     +     4     +
 -------------------------------------------------
 -------------------------------------------------
 -------------------------------------------------
 -(7)-7--7--7--7--------------------7--3--3--3--3-
 -(7)-7--7--7--7--------------------7--3--3--3--3-
 -(5)-5--5--5--5--------------------5--1--1--1--1-
      \pm_______________________________________/
[ Tab from: http://www.guitartabs.cc/tabs/o/offspring/self_esteem_tab_ver_2.html ]
   1     +     2     +     3     +     4     +
 -------------------------------------------------
 -------------------------------------------------
 --5--5--5--5--5--------------------5-------------
 --5--5--5--5--5--------------------5--5--5--5--5/
 --3--3--3--3--3--------------------3--5--5--5--5/
 --------------------------------------3--3--3--3/
   \pm_______________________________________/


Riff 4a:
   1     +     2     +     3     +     4     +
 -------------------------------------------------
 -------------------------------------------------
 -------------------------------------------------
 -(7)-7--7--7--7--------------------7--3--3--3--3-
 -(7)-7--7--7--7--------------------7--3--3--3--3-
 -(5)-5--5--5--5--------------------5--1--1--1--1-
      \pm_______________________________________/

   1     +     2     +     3     +     4     +
 -------------------------------------------------
 -------------------------------------------------
 --5-----------5-----5--5-------------------------
 --5-----------5-----5--5--5--5--5-----5-----5--5-
 --3-----------3-----3--3--5--5--5-----5-----5--5-
 --------------------------3--3--3-----3-----3--3-
                           

Riff 5:
   1     +     2     +     3     +     4     +
 -------------------------------------------------
 -------------------------------------------------
 --7-----------7-----7--7--3--3--3-----3-----3--3-
 --7-----------7-----7--7--3--3--3-----3-----3--3-
 --5-----------5-----5--5--1--1--1-----1-----1--1-
 -------------------------------------------------


   1     +     2     +     3     +     4     +
 -------------------------------------------------
 -------------------------------------------------
 --------------------------5--5--5-----5-----5--5-
 --3-----------3-----3--3--5--5--5-----5-----5--5-
 --3-----------3-----3--3--3--3--3-----3-----3--3-
 --1-----------1-----1--1-------------------------


   1     +     2     +     3     +     4     +
 -------------------------------------------------
 -------------------------------------------------
 --7-----------7-----7--7--3--3--3-----3-----3--3-
 --7-----------7-----7--7--3--3--3-----3-----3--3-
 --5-----------5-----5--5--1--1--1-----1-----1--1-
 -------------------------------------------------


   1     +     2     +     3     +     4     +
 -------------------------------------------------
 -------------------------------------------------
 --------------------------x--x--x--x--x--x--x--x-
 --3-----------3-----3--3--x--x--x--x--x--x--x--x-
 --3-----------3-----3--3--x--x--x--x--x--x--x--x-
 --1-----------1-----1--1-------------------------


Riff 6:
   1     +     2     +     3     +     4     +
 -------------------------------------------------
 -------------------------------------------------
 --7-----------7-----7--7--3--3--3-----3-----3--3-
 --7-----------7-----7--7--3--3--3-----3-----3--3-
 --5-----------5-----5--5--1--1--1-----1-----1--1-
 -------------------------------------------------


   1     +     2     +     3     +     4     +
 -------------------------------------------------
 -------------------------------------------------
 --5-----------5-----5--5-------------------------
 --5-----------5-----5--5--5--5--5-----5-----5--5-
 --3-----------3-----3--3--5--5--5-----5-----5--5-
 --------------------------3--3--3-----3-----3--3-
                           
Song structure:

   tacet
2x riff 1
1x riff 2
   tacet
1x riff 3
   tacet        
1x riff 3a
3x riff 4      
1x riff 4a   
4x riff 1
   tacet       
1x riff 3b
1x riff 4      
1x riff 4a      
4x riff 1
3x riff 5       
1x riff 6     
1x riff 2       
   tacet
1x riff 3
   tacet        
1x riff 3a
3x riff 4       
1x riff 4a
4x riff 1
3x riff 5       
1x riff 6  
1x riff 2       
Comments