Offspring - Self Esteem Chords & Tabs

 

Self Esteem Chords & Tabs

Offspring Chords & Tabs

Version: 11 Type: Tab 0 ratings
1 star 2 stars 3 stars 4 stars 5 stars
comments

Self Esteem Tab

   
Tabbed By: Brett J
Email if you have any corrections or questions!
E-mail: thejohnsonshome@comcast.net

The Offspring
Self Esteem

This is the whole song in order.


e---------------------------|   
B---------------------------|
G---------------------------|
D---------10-10-5-5-5-5-----|
A-7-7-7-7-8--8--3-3-3-3-5-5-|
E-5-5-5-5---------------3-3-|

e---------------------------|
B---------------------------|
G---------------------------|
D---------10-10-5-5-5-5-----|
A-7-7-7-7-8--8--3-3-3-3-5-5-|
E-5-5-5-5---------------3-3-|

e-------------------------------|
B-------------------------------|
G-------------------------------|
D-------------------------------|
A-3-3-3-3-3-3-3-3-3-3-3-5-5-5-5-|
E-1-1-1-1-1-1-1-1-1-1-1-3-3-3-3-|

e------------|
B------------|
G-7-7----7-7-|
D-5-5----5-5-|
A------------|
E------------|

e-----------------------------------------|
B-----------------------------------------|
G-----------------------------------------|
D---------------------5-5-5-5-5-----------|
A-7-7-7-7-7-3-3-3-3-3-3-3-3-3-3-5-5-5-5-5-|
E-5-5-5-5-5-1-1-1-1-1-----------3-3-3-3-3-|

e-----------------------------------------|
B-----------------------------------------|
G-----------------------------------------|
D---------------------5-5-5-5-5-----------|
A-7-7-7-7-7-3-3-3-3-3-3-3-3-3-3-5-5-5-5-5-|
E-5-5-5-5-5-1-1-1-1-1-----------3-3-3-3-3-|

e-----------------------------------------|
B-----------------------------------------|
G-----------------------------------------|
D---------------------5-5-5-5-5-----------|
A-7-7-7-7-7-3-3-3-3-3-3-3-3-3-3-5-5-5-5-5-|
E-5-5-5-5-5-1-1-1-1-1-----------3-3-3-3-3-|

e-----------------------------------------|
B-----------------------------------------|
G-----------------------------------------|
D---------------------5-5-5-5-5-----------|
A-7-7-7-7-7-3-3-3-3-3-3-3-3-3-3-5-5-5-5-5-|
E-5-5-5-5-5-1-1-1-1-1-----------3-3-3-3-3-|

e---------------------------|
B---------------------------|
G---------------------------|
D---------10-10-5-5-5-5-----|
A-7-7-7-7-8--8--3-3-3-3-5-5-|
E-5-5-5-5---------------3-3-|

e---------------------------|
B---------------------------|
G---------------------------|
D---------10-10-5-5-5-5-----|
A-7-7-7-7-8--8--3-3-3-3-5-5-|
E-5-5-5-5---------------3-3-|

e---------------------------|
B---------------------------|
G---------------------------|
D---------10-10-5-5-5-5-----|
A-7-7-7-7-8--8--3-3-3-3-5-5-|
E-5-5-5-5---------------3-3-|

e---------------------------|
B---------------------------|
G---------------------------|
D---------10-10-5-5-5-5-----|
A-7-7-7-7-8--8--3-3-3-3-5-5-|
E-5-5-5-5---------------3-3-|

e-----------------------------------------|
B-----------------------------------------|
G-----------------------------------------|
D---------------------5-5-5-5-5-----------|
A-7-7-7-7-7-3-3-3-3-3-3-3-3-3-3-5-5-5-5-5-|
E-5-5-5-5-5-1-1-1-1-1-----------3-3-3-3-3-|

e-------------------------|  
B-------------------------|
G-------------------------|
D-7-7-7-7-3-3---------5-5-|
A-5-5-5-5-1-1-3-3-3-3-3-3-|
E-------------1-1-1-1-----|

e-------------------------|  
B-------------------------|
G-------------------------|
D-7-7-7-7-3-3---------5-5-|
A-5-5-5-5-1-1-3-3-3-3-3-3-|
E-------------1-1-1-1-----|

e-------------------------|  
B-------------------------|
G-------------------------|
D-7-7-7-7-3-3---------5-5-|
A-5-5-5-5-1-1-3-3-3-3-3-3-|
E-------------1-1-1-1-----|

e-------------------------|  
B-------------------------|
G-------------------------|
D-7-7-7-7-3-3---------5-5-|
A-5-5-5-5-1-1-3-3-3-3-3-3-|
E-------------1-1-1-1-----|

e-------------------------|  
B-------------------------|
G-------------------------|
D-7-7-7-7-3-3---------5-5-|
A-5-5-5-5-1-1-3-3-3-3-3-3-|
E-------------1-1-1-1-----|
[ Tab from: http://www.guitartabs.cc/tabs/o/offspring/self_esteem_tab_ver_11.html ]
e-------------------------|  
B-------------------------|
G-------------------------|
D-7-7-7-7-3-3---------5-5-|
A-5-5-5-5-1-1-3-3-3-3-3-3-|
E-------------1-1-1-1-----|

e-----------------------------------------------------|
B-----------------------------------------------------|
G-----------------------------------------------------|
D-7-7-7-7-3-3-5-5-5-5---------------------------------|
A-5-5-5-5-1-1-3-3-3-3-5-5-3-3-3-3-3-3-3-7-7-7-7-7-7-7-|
E---------------------3-3-1-1-1-1-1-1-1-5-5-5-5-5-5-5-|

e------------|
B------------|
G-7-7----7-7-|
D-5-5----5-5-|
A------------|
E------------|

e-----------------------------------------|
B-----------------------------------------|
G-----------------------------------------|
D---------------------5-5-5-5-5-----------|
A-7-7-7-7-7-3-3-3-3-3-3-3-3-3-3-5-5-5-5-5-|
E-5-5-5-5-5-1-1-1-1-1-----------3-3-3-3-3-|

e-----------------------------------------|
B-----------------------------------------|
G-----------------------------------------|
D---------------------5-5-5-5-5-----------|
A-7-7-7-7-7-3-3-3-3-3-3-3-3-3-3-5-5-5-5-5-|
E-5-5-5-5-5-1-1-1-1-1-----------3-3-3-3-3-|

e-----------------------------------------|
B-----------------------------------------|
G-----------------------------------------|
D---------------------5-5-5-5-5-----------|
A-7-7-7-7-7-3-3-3-3-3-3-3-3-3-3-5-5-5-5-5-|
E-5-5-5-5-5-1-1-1-1-1-----------3-3-3-3-3-|

e-----------------------------------------|
B-----------------------------------------|
G-----------------------------------------|
D---------------------5-5-5-5-5-----------|
A-7-7-7-7-7-3-3-3-3-3-3-3-3-3-3-5-5-5-5-5-|
E-5-5-5-5-5-1-1-1-1-1-----------3-3-3-3-3-|

e---------------------------|
B---------------------------|
G---------------------------|
D---------10-10-5-5-5-5-----|
A-7-7-7-7-8--8--3-3-3-3-5-5-|
E-5-5-5-5---------------3-3-|

e---------------------------|
B---------------------------|
G---------------------------|
D---------10-10-5-5-5-5-----|
A-7-7-7-7-8--8--3-3-3-3-5-5-|
E-5-5-5-5---------------3-3-|

e---------------------------|
B---------------------------|
G---------------------------|
D---------10-10-5-5-5-5-----|
A-7-7-7-7-8--8--3-3-3-3-5-5-|
E-5-5-5-5---------------3-3-|

e---------------------------|
B---------------------------|
G---------------------------|
D---------10-10-5-5-5-5-----|
A-7-7-7-7-8--8--3-3-3-3-5-5-|
E-5-5-5-5---------------3-3-|

e-------------------------|  
B-------------------------|
G-------------------------|
D-7-7-7-7-3-3---------5-5-|
A-5-5-5-5-1-1-3-3-3-3-3-3-|
E-------------1-1-1-1-----|

e-------------------------|  
B-------------------------|
G-------------------------|
D-7-7-7-7-3-3---------5-5-|
A-5-5-5-5-1-1-3-3-3-3-3-3-|
E-------------1-1-1-1-----|

e-------------------------|  
B-------------------------|
G-------------------------|
D-7-7-7-7-3-3---------5-5-|
A-5-5-5-5-1-1-3-3-3-3-3-3-|
E-------------1-1-1-1-----|

e-------------------------|  
B-------------------------|
G-------------------------|
D-7-7-7-7-3-3---------5-5-|
A-5-5-5-5-1-1-3-3-3-3-3-3-|
E-------------1-1-1-1-----|

e-------------------------|  
B-------------------------|
G-------------------------|
D-7-7-7-7-3-3---------5-5-|
A-5-5-5-5-1-1-3-3-3-3-3-3-|
E-------------1-1-1-1-----|

e-------------------------|  
B-------------------------|
G-------------------------|
D-7-7-7-7-3-3---------5-5-|
A-5-5-5-5-1-1-3-3-3-3-3-3-|
E-------------1-1-1-1-----|


e-----------------------------------------------------|
B-----------------------------------------------------|
G-----------------------------------------------------|
D-7-7-7-7-3-3-5-5-5-5---------------------------------|
A-5-5-5-5-1-1-3-3-3-3-5-5-3-3-3-3-3-3-3-7-7-7-7-7-7-7-|
E---------------------3-3-1-1-1-1-1-1-1-5-5-5-5-5-5-5-|

End on same thing as last note.
Comments