Offspring - Self Esteem Chords & Tabs

 

Self Esteem Chords & Tabs

Offspring Chords & Tabs

Version: 10 Type: Tab 0 ratings
1 star 2 stars 3 stars 4 stars 5 stars
comments

Self Esteem Tab

   
Song Name:Self Esteem
Band:Offspring
Tuning:Standard

Intro/choras
Play this twice. Note:This part follows the rythm from the volcals prior to guitar entry.
e---------------------------|
B---------------------------|
G---------------------------|
D---------10-10-5-5-5-5-----|
A-7-7-7-7-8--8--3-3-3-3-5-5-|
E-5-5-5-5---------------3-3-|

Intro pt.2
The first 6/1 is a quarter note the next two are eiths and the rest are sixteenths.
e-------------------------------|
B-------------------------------|
G-------------------------------|
D-------------------------------|
A-3-3-3-3-3-3-3-3-3-3-3-5-5-5-5-|
E-1-1-1-1-1-1-1-1-1-1-1-3-3-3-3-|

2 measures of drums and bass then after the first two 4/5s 7 more.

Verse pt.1
e------------|
B------------|
G-7-7----7-7-|
D-5-5----5-5-|
A------------|
E------------|
[ Tab from: http://www.guitartabs.cc/tabs/o/offspring/self_esteem_tab_ver_10.html ]
Verse pt.2
This part follows the bass line. Play four times the last time play the 5/3 as a measure 
sixteenth notes.
e-----------------------------------------|
B-----------------------------------------|
G-----------------------------------------|
D---------------------5-5-5-5-5-----------|
A-7-7-7-7-7-3-3-3-3-3-3-3-3-3-3-5-5-5-5-5-|
E-5-5-5-5-5-1-1-1-1-1-----------3-3-3-3-3-|

Bridge pt.1
This sounds the same as the intro/choras. Play six times. Every two times play the 5/5 
a measure of sixteenth notes instead of the normal way.
e-------------------------|
B-------------------------|
G-------------------------|
D-7-7-7-7-3-3---------5-5-|
A-5-5-5-5-1-1-3-3-3-3-3-3-|
E-------------1-1-1-1-----|

Bridge pt.2
The first part of this sounds like the intro/choras, the second part sounds like intro pt.2.
e-----------------------------------------------------|
B-----------------------------------------------------|
G-----------------------------------------------------|
D-7-7-7-7-3-3-5-5-5-5---------------------------------|
A-5-5-5-5-1-1-3-3-3-3-5-5-3-3-3-3-3-3-3-7-7-7-7-7-7-7-|
E---------------------3-3-1-1-1-1-1-1-1-5-5-5-5-5-5-5-|

Outro
Just play this note hard and fast.
e---
B---
G---
D---
A-7-
E-5-
Song Order:
Intro/Choras x2
Intro pt.2 x1
Verse pt.1 x1
Verse pt.2 x4
Intro/Choras x4
Verse pt.2 x2
Intro/Choras x4
Bridge pt.1 x6
Bridge pt.2 x1
Verse pt.1 x1
Verse pt.2 x4
Intro/Choras x4
Bridge pt.1 x6
Bridge pt.2 x1
Outro x1
Comments