Offspring - Race Against Myself Chords & Tabs

 

Race Against Myself Chords & Tabs

Offspring Chords & Tabs

Version: 3 Type: Tab 0 ratings
1 star 2 stars 3 stars 4 stars 5 stars
comments

Race Against Myself Tab

   
----------------------------------------------------------------------------
	        Race Against Myself - Offspring
----------------------------------------------------------------------------
Tabbed by: Clayton Pennington
Email: offspring_punk08@hotmail.com

Tuning:EADGBe

Intro/Chorus (Noodles) x2
e|---------------------------------------------------------------------|
B|---------------------------------------------------------------------|
G|11-11-11-11-11-11-11-13-14--14-14-13-11-9-9-9------------------------|
D|x--x--x--x--x---x-x--x--x---x--x--x--x--x-x-x------------------------|
A|9--9--9--9--9---9-9--11-12--12-12-11-9--7-7-7------------------------|
E|---------------------------------------------------------------------|

Intro/Chorus (Noodles) 3rd time only
e|---------------------------------------------------------------------|
B|---------------------------------------------------------------------|
G|11-11-11-11-11-11-11-13-14-14-16-14-13-11-9-9-9----------------------|
D|x--x--x--x--x---x-x--x--x--x--x--x--x--x--x-x-x----------------------|
A|9--9--9--9--9---9-9--11-12-12-14-12-11-9--7-7-7----------------------|
E|---------------------------------------------------------------------|

Solo after Intro/Chorus
e|---------------------------------------------------------------------|
B|-14--14-14--10--10-10------------------------------------------------|
G|--x---x--x---x---x--x--18-18/19-18-16-14-13-11-----------------------|
D|-16--16-16--12--12-12---x--x--x--x--x--x--x--x-----------------------|
A|-----------------------16-16/17-16-14-12-11--9-----------------------|
E|---------------------------------------------------------------------|

Intro/Chorus (Dexter) x4
e|---------------------------------------------------------------------|
B|---------------------------------------------------------------------|
G|------7~~~-----------------------------------------------------------|
D|-4~~~-7~~~-7~~~-2~~~-------------------------------------------------|
A|-4~~~-5~~~-7~~~-2~~~-------------------------------------------------|
E|-2~~~------5~~~-0~~~-------------------------------------------------|

Pre-Verse (Dexter) x2
e|---------------------------------------------------------------------|
B|---------------------------------------------------------------------|
G|---------------------------------------------------------------------|
D|-4-4--4-4--4-4--4-4--4--444-42--2-2--2-2--2-2--2-2--222-24-----------|
A|-4-4--4-4--4-4--4-4--4--444-42--2-2--2-2--2-2--2-2--222-24-----------|
E|-2-2--2-2--2-2--2-2--2--222-20--0-0--0-0--0-0--0-0--000-02-----------|
   x    x    x    x    x          x    x    x    x

Verse (Dexter) x4
e|---------------------------------------------------------------------|
B|---------------------------------------------------------------------|
G|111111-111111-111111-111111-111111--999-999-999-999-999--------------|
D|111111-111111-111111-111111-111111--999-999-999-999-999--------------|
A|-9-9-9--9-9-9--9-9-9--9-9-9--9-9-9--777-777-777-777-777--------------|
E|---------------------------------------------------------------------|
   x x x  x x x  x x x  x x x  x x x  xxx xxx xxx xxx xxx

Intro/Chorus (Noodles) x2
e|---------------------------------------------------------------------|
B|---------------------------------------------------------------------|
G|11-11-11-11-11-11-11-13-14--14-14-13-11-9-9-9------------------------|
D|x--x--x--x--x---x-x--x--x---x--x--x--x--x-x-x------------------------|
A|9--9--9--9--9---9-9--11-12--12-12-11-9--7-7-7------------------------|
E|---------------------------------------------------------------------|

Intro/Chorus (Noodles) 3rd time only
e|---------------------------------------------------------------------|
B|---------------------------------------------------------------------|
G|11-11-11-11-11-11-11-13-14-14-16-14-13-11-9-9-9----------------------|
D|x--x--x--x--x---x-x--x--x--x--x--x--x--x--x-x-x----------------------|
A|9--9--9--9--9---9-9--11-12-12-14-12-11-9--7-7-7----------------------|
E|---------------------------------------------------------------------|

Solo after Intro/Chorus
e|---------------------------------------------------------------------|
B|-14--14-14--10--10-10------------------------------------------------|
G|--x---x--x---x---x--x--18-18/19-18-16-14-13-11-----------------------|
D|-16--16-16--12--12-12---x--x--x--x--x--x--x--x-----------------------|
A|-----------------------16-16/17-16-14-12-11--9-----------------------|
E|---------------------------------------------------------------------|

Intro/Chorus (Dexter) x4
e|---------------------------------------------------------------------|
B|---------------------------------------------------------------------|
G|------7~~~-----------------------------------------------------------|
D|-4~~~-7~~~-7~~~-2~~~-------------------------------------------------|
A|-4~~~-5~~~-7~~~-2~~~-------------------------------------------------|
E|-2~~~------5~~~-0~~~-------------------------------------------------|

Pre-Verse (Dexter) x2
e|---------------------------------------------------------------------|
B|---------------------------------------------------------------------|
G|---------------------------------------------------------------------|
D|-4-4--4-4--4-4--4-4--4--444-42--2-2--2-2--2-2--2-2--222-24-----------|
A|-4-4--4-4--4-4--4-4--4--444-42--2-2--2-2--2-2--2-2--222-24-----------|
E|-2-2--2-2--2-2--2-2--2--222-20--0-0--0-0--0-0--0-0--000-02-----------|
   x    x    x    x    x          x    x    x    x
[ Tab from: http://www.guitartabs.cc/tabs/o/offspring/race_against_myself_tab_ver_3.html ]
Verse (Dexter) x4
e|---------------------------------------------------------------------|
B|---------------------------------------------------------------------|
G|111111-111111-111111-111111-111111--999-999-999-999-999--------------|
D|111111-111111-111111-111111-111111--999-999-999-999-999--------------|
A|-9-9-9--9-9-9--9-9-9--9-9-9--9-9-9--777-777-777-777-777--------------|
E|---------------------------------------------------------------------|
   x x x  x x x  x x x  x x x  x x x  xxx xxx xxx xxx xxx

Intro/Chorus (Noodles) x2
e|---------------------------------------------------------------------|
B|---------------------------------------------------------------------|
G|11-11-11-11-11-11-11-13-14--14-14-13-11-9-9-9------------------------|
D|x--x--x--x--x---x-x--x--x---x--x--x--x--x-x-x------------------------|
A|9--9--9--9--9---9-9--11-12--12-12-11-9--7-7-7------------------------|
E|---------------------------------------------------------------------|

Intro/Chorus (Noodles) 3rd time only
e|---------------------------------------------------------------------|
B|---------------------------------------------------------------------|
G|11-11-11-11-11-11-11-13-14-14-16-14-13-11-9-9-9----------------------|
D|x--x--x--x--x---x-x--x--x--x--x--x--x--x--x-x-x----------------------|
A|9--9--9--9--9---9-9--11-12-12-14-12-11-9--7-7-7----------------------|
E|---------------------------------------------------------------------|

Solo after Intro/Chorus
e|---------------------------------------------------------------------|
B|-14--14-14--10--10-10------------------------------------------------|
G|--x---x--x---x---x--x--18-18/19-18-16-14-13-11-----------------------|
D|-16--16-16--12--12-12---x--x--x--x--x--x--x--x-----------------------|
A|-----------------------16-16/17-16-14-12-11--9-----------------------|
E|---------------------------------------------------------------------|

Intro/Chorus (Dexter) x4
e|---------------------------------------------------------------------|
B|---------------------------------------------------------------------|
G|------7~~~-----------------------------------------------------------|
D|-4~~~-7~~~-7~~~-2~~~-------------------------------------------------|
A|-4~~~-5~~~-7~~~-2~~~-------------------------------------------------|
E|-2~~~------5~~~-0~~~-------------------------------------------------|

Bridge (Dexter and Noodles) x4
e|---------------------------------------------------------------------|
B|---------------------------------------------------------------------|
G|111111-111111-111111-111111-----------111111-111111-111111-111111----|
D|111111-111111-111111-111111-10-9-7-9--111111-111111-111111-111111-7-9|
A|-9-9-9--9-9-9--9-9-9--9-9-9-10-9-7-9---9-9-9--9-9-9--9-9-9--9-9-9-7-9|
E|-----------------------------8-7-5-7------------------------------5-7|
   x x    x x    x x    x x x            x x    x x    x x    x x x

Intro/Chorus (Noodles) x2
e|---------------------------------------------------------------------|
B|---------------------------------------------------------------------|
G|11-11-11-11-11-11-11-13-14--14-14-13-11-9-9-9------------------------|
D|x--x--x--x--x---x-x--x--x---x--x--x--x--x-x-x------------------------|
A|9--9--9--9--9---9-9--11-12--12-12-11-9--7-7-7------------------------|
E|---------------------------------------------------------------------|

Intro/Chorus (Noodles) 3rd time only
e|---------------------------------------------------------------------|
B|---------------------------------------------------------------------|
G|11-11-11-11-11-11-11-13-14-14-16-14-13-11-9-9-9----------------------|
D|x--x--x--x--x---x-x--x--x--x--x--x--x--x--x-x-x----------------------|
A|9--9--9--9--9---9-9--11-12-12-14-12-11-9--7-7-7----------------------|
E|---------------------------------------------------------------------|

Solo after Intro/Chorus
e|---------------------------------------------------------------------|
B|-14--14-14--10--10-10------------------------------------------------|
G|--x---x--x---x---x--x--18-18/19-18-16-14-13-11-----------------------|
D|-16--16-16--12--12-12---x--x--x--x--x--x--x--x-----------------------|
A|-----------------------16-16/17-16-14-12-11--9-----------------------|
E|---------------------------------------------------------------------|

Intro/Chorus (Dexter) x4
e|---------------------------------------------------------------------|
B|---------------------------------------------------------------------|
G|------7~~~-----------------------------------------------------------|
D|-4~~~-7~~~-7~~~-2~~~-------------------------------------------------|
A|-4~~~-5~~~-7~~~-2~~~-------------------------------------------------|
E|-2~~~------5~~~-0~~~-------------------------------------------------|

Ending (Dexter) 
e|---------------------------------------------------------------------|
B|---------------------------------------------------------------------|
G|---------------------------------------------------------------------|
D|-4-4--4-4--4-4--4-4--4--444-42--2-2--2-2--2-2--2-2--222-24-----------|
A|-4-4--4-4--4-4--4-4--4--444-42--2-2--2-2--2-2--2-2--222-24-----------|
E|-2-2--2-2--2-2--2-2--2--222-20--0-0--0-0--0-0--0-0--000-02-----------|
   x    x    x    x    x          x    x    
Ending cont'd (Dexter) 
e|---------------------------------------------------------------------|
B|---------------------------------------------------------------------|
G|---------------------------------------------------------------------|
D|-4-4--4-4--4-4--4-4--4--444-42--2-2--2-2--2-2--2-2--222-24~~~--------|
A|-4-4--4-4--4-4--4-4--4--444-42--2-2--2-2--2-2--2-2--222-24~~~--------|
E|-2-2--2-2--2-2--2-2--2--222-20--0-0--0-0--0-0--0-0--000-02~~~--------|
   x    x    x    x    x          

I'm about 100% sure this is correct. I tabbed all myself so please accept it! I
promise this wont steer you wrong.

| /  slide up
| \  slide down
| h  hammer-on
| p  pull-off
| ~  vibrato
| +  harmonic
| x  palm mute
============================================================================
Comments