Offspring - Race Against Myself Chords & Tabs

 

Race Against Myself Chords & Tabs

Offspring Chords & Tabs

Version: 1 Type: Bass Tab 0 ratings
1 star 2 stars 3 stars 4 stars 5 stars
comments

Race Against Myself Bass Tab

   
Song: Race Agianst Myself
Band: The Offspring
Album: Slpinter
Tabbed by: SeepZ (hypercobra69@hotmail.com)
I haven't seen a tab on the site for this yet, so here it is. its pretty close if not 100%

INTRO/CHORUS

G----------------------------------------------------------
D----------------------------------------------------------
A-----5-555------------------------------------------------
E-2-22-----5-555-0-0---------------------------------------

PRE-VERSE

G----------------------------------------------------------
D----------------------------------------------------------
A----------------------------------------------------------
E-2-2-R-2-2-R-2-2-R-2-2-R-2-2-2-2-2-0-R-0-0-R-0-0-R-0-0-Ró

PRE-VERSE (contd.)
[ Tab from: http://www.guitartabs.cc/tabs/o/offspring/race_against_myself_btab.html ]
G----------------------------------------------------------
D----------------------------------------------------------
A----------------------------------------------------------
E-0-0-0-0-0------------------------------------------------

VERSE

G----------------------------------------------------------
D----------------------------------------------------------
A----------------------------------------------------------
E-2222222222222222-0000000000000000------------------------

BRIDGE

G----------------------------------------------------------
D----------------------------------------------------------
A--------------5-4-0-2--------------0-2--------------------
E-222222222222---------222222222222------------------------

INTRO X4
PRE-VERSE X2
VERSE X4
CHORUS X4
PRE-VERSE X2
VERSE X4
CHORUS X4
BRIDGE X4
CHORUS X4
PRE-VERSE X2
END ON F# (E-2-)
Comments