Offspring - Pretty Fly For A White Guy Chords & Tabs

 

Pretty Fly For A White Guy Chords & Tabs

Offspring Chords & Tabs

Version: 7 Type: Tab 0 ratings
1 star 2 stars 3 stars 4 stars 5 stars
comments

Pretty Fly For A White Guy Tab

this song is tabed by
     

     PRETTY FLY
     Offspring

     Tuning Info
     #####################

     this is on normal tuning

     
     / = sliding
     Intro/Chorus
     e|------------------------------------------------------|
     B|------------------------------------------------------|
     G|--------------4-2-------------------------------------|
     D|--4-4---2-4-4-2-0-------------------------------------|
     A|--2-2-4-0-2-2-----------------------------------------|
     E|------2-----------------------------------------------|
     repeat 3x
[ Tab from: http://www.guitartabs.cc/tabs/o/offspring/pretty_fly_for_a_white_guy_tab_ver_7.html ]
     Verse  
     e|--22--22--22--22--22--22------------------------------|
     B|--33--33--33--33--33--33------------------------------|
     G|------------------------------------------------------|
     D|------------------------------------------------------|
     A|------------------------------------------------------|
     E|------------------------------------------------------|
     
     Refrein
     e|--------------------------------------------------------------|
     B|--------------------------------------------------------------|
     G|-------5/6-5/6------5/6-5/6-2--2---2-4-4-2--------------------|
     D|--4--4-3/4-3/4-4--4-3/4-3/4-0--0-2-0-2-2-0-2------------------|
     A|--2--2---------2--2--------------0---------0------------------|
     E|--------------------------------------------------------------|
     repeat 3x
     
     e|------------------------------------------------------|
     B|------------------------------------------------------|
     G|------------------------------------------------------|
     D|--5--5---5-7-7-5------432-02--------------------------|
     A|--5--5-5-5-7-7-5-5--22---2--2-------------------------|
     E|-------5---------5------------------------------------|

     extra chorus
     e|------------------------------------------------------|
     B|------------------------------------------------------|
     G|--------------4-2-----------4-2-----------------------|
     D|--------------2-0--4--------2-0-----------------------|
     A|---2--2--2--2------2---2--2---------------------------|
     E|--0--0--0--0----------0--0----------------------------|

     End
     e|------------------------------------------------------|
     B|------------------------------------------------------|
     G|------------------------------------------------------|
     D|--5--5---5-7-7-5------432-02--------------------------|
     A|--5--5-5-5-7-7-5-5--22---2--2-------------------------|
     E|-------5---------5------------------------------------|
     repeat 3x

     The song is like this

     Intro
     verse
     refrein
     chorus
     verse 
     refrein
     extra chorus
     chorus
     verse
     end

     fore the exact ritem you should lissen to the song once ore twice

     this is my first tab but i think its a pritty good one
Comments