Offspring - Pretty Fly For A White Guy Chords & Tabs

 

Pretty Fly For A White Guy Chords & Tabs

Offspring Chords & Tabs

Version: 11 Type: Tab 0 ratings
1 star 2 stars 3 stars 4 stars 5 stars
comments

Pretty Fly For A White Guy Tab

   
Author/Artist: The Offspring
Title: Pretty Fly (For A White Guy)
Transcribed by: Chris Arnold
Email: Chris2831@aol.com

I told you I'd finish it!

For all of you who don't take Espanol, "uno, dos, tres, cuatro, cinco-cino, seis"
means 1, 2, 3, 4, 5 5, 6. You learn something new everyday don't you?!

Standard Tuning
*Heavy Distortion!*
Main Riff:
E-----------------------|
B-----------------------|
G-----------------------|
D-9-x-9-4-7-9-x-9-14-12-|
A-9-x-9-4-7-9-x-9-14-12-|
E-7-x-7-2-5-7-x-7-12-10-|

Background (repeat)- I'm not sure that this is correct,
but this sounds close enough to the little ska 
thingie they put in the background:
E-------|
B-10-10-|
G-11-11-|
D-------|
A-------|
E-------|

Chorus ("So don't delay..."):
E--------------------------------------------------------------
B--------------------------------------------------------------
G------9/10\9/10--------9/10\9/10----------------9-9-9---------
D-9-9--9/10\9/10---9-9--9/10\9/10---12-12--7--9--9-9-9--12--7--
A-9-9--7/ 8\7/ 8---9-9--7/ 8\7/ 8---12-12--7--9--7-7-7--12--7--
E-7-7--------------7-7--------------10-10--5--7--7-7-7--10--5--
[ Tab from: http://www.guitartabs.cc/tabs/o/offspring/pretty_fly_for_a_white_guy_tab_ver_11.html ]
E------------------------------------------------------------------
B------------------------------------------------------------------
G------9/10\9/10--------9/10\9/10----------------9-9-9--9/10\9/10--
D-9-9--9/10\9/10---9-9--9/10\9/10---12-12--7--9--9-9-9--9/10\9/10--
A-9-9--7/ 8\7/ 8---9-9--7/ 8\7/ 8---12-12--7--9--7-7-7--7/ 8\7/ 8--
E-7-7--------------7-7--------------10-10--5--7--7-7-7--7/ 8\7/ 8--

E--------------------------------------------------------------|
B--------------------------------------------------------------|
G------9/10\9/10--------9/10\9/10----------------9-9-9---------|
D-9-9--9/10\9/10---9-9--9/10\9/10---12-12--7--9--9-9-9--12--7--|
A-9-9--7/ 8\7/ 8---9-9--7/ 8\7/ 8---12-12--7--9--7-7-7--12--7--|
E-7-7--------------7-7--------------10-10--5--7--7-7-7--10--5--|

"The world..." (I'm not positive about the end):
E----------------------------------------------|
B----------------------------------------------|
G-12-12-12-12--14-14-14-14---------------------|
D-12-12-12-12--14-14-14-14--9-9-9-7------------|
A-10-10-10-10--12-12-12-12--9-9-----9-7--------|
E---------------------------7-7---------9-8-7--|

"Friends say he's trying to hard..." (repeat):
E--------------|
B--------------|
G--------------|
D-9--8/9--8/9--|
A-9--8/9--8/9--|
E-7--6/7--6/7--|
Comments