Offspring - Pretty Fly For A White Guy Chords & Tabs

 

Pretty Fly For A White Guy Chords & Tabs

Offspring Chords & Tabs

Version: 9 Type: Bass Tab 0 ratings
1 star 2 stars 3 stars 4 stars 5 stars
comments

Pretty Fly For A White Guy Bass Tab

   
This should be correct. Maybe slightly off.

Verse/Intro:
G--------------------|
D---------------2-0--|
A-2--2---0-2--2------|
E------0-------------|

Chorus:
       x 2        "..you know he doesent.."
G---------------|------------------|
D-------3h4r3h4-|------------------|
A-2---2---------|--5-5---5-7-7---7-|
E---------------|------5-------7---|
[ Tab from: http://www.guitartabs.cc/tabs/o/offspring/pretty_fly_for_a_white_guy_btab_ver_9.html ]
"the world needs one of me..."
G-------------------------------------|
D-------------------------------------|
A-------------------------------------|
E-3-3-3-3-3-3-3-3-3-5-5-5-5-5-5-5-5-5-|

"Now he's gettin a tatoo..."
G------------------------------|
D--------------------------0-2-|
A-2-----0-2----2---0-2---2-----|
E------------------------------|
Comments