Offspring - Pretty Fly For A White Guy Chords & Tabs

 

Pretty Fly For A White Guy Chords & Tabs

Offspring Chords & Tabs

Version: 8 Type: Bass Tab 0 ratings
1 star 2 stars 3 stars 4 stars 5 stars
comments

Pretty Fly For A White Guy Bass Tab

   
Author/Artist: The Offspring
Title: Pretty Fly (For A White Guy)
Transcribed by: Kristin Campbell
Email: alaina_iwancio@yahoo.com or Sharo12703@aol.com

Intro/Verses (except last verse, see below):
G-------------------------------|
D-------------------------------|
A-------------------------------|
E-7-7-7-7\2-2-2-2/7-7-7-7-12\10-|

Chorus:
G-------------------------------------------------------------|
D-------------------------------------------------------------|
A-------------------------------------------------------------|
E-7-7-13h14-13h14-7-7-7-13h14-13h14-7-7-0-0-0-2-2-2-2/4-4-4-4-|

Last Verse:
G----------------------|
D----------------------|
A---------10-----------|
E-7-7-7-7----7-7/12\10-|

=================================================================
BTAB: Pretty Fly (for a White Guy)
Artist: The Offspring
Album: Americana
Author: Rattman (jratt0@hotmail.com)

**Padrino's Bass Tab Exclusive!**

No Bass During the Sampled Parts.

Verse/Intro:
G--------------------
D---------------2-0--
A-2--2---0-2--2------
E------2-------------

Chorus:
       x 2        "..you know he doesent.."
G---------------|------------------
D-------3h4r3h4-|------------------
A-2---2---------|--5-5---5-7-7---7-
E---------------|------5-------7---

"the world needs one of me..."
G-------------------------------------
D-------------------------------------
A-------------------------------------
E-3-3-3-3-3-3-3-3-3-5-5-5-5-5-5-5-5-5-

"Now he's gettin a tatoo..."
G------------------------------
D--------------------------0-2-
A-2-----0-2----2---0-2---2-----
E------------------------------

Taken from Padrino's Bass Tab Archive: http://members.xoom.com/jszalma/
[ Tab from: http://www.guitartabs.cc/tabs/o/offspring/pretty_fly_for_a_white_guy_btab_ver_8.html ]
============================================================
Song: Pretty Fly (For A White Guy)
Artist: The Offspring
Album: Americana
Tabbed By: Luc / BlueGoose (littledevilchild@cuteandcuddly.com)
Intro: Drums
Give it to me baby. Uh-huh! Uh-huh!
Give it to me baby. Uh-huh! Uh-huh!
Give it to me baby. Uh-huh! Uh-huh!
And all the girlies say I'm pretty fly for a white guy
Intro:
G--------------------
D---------------2-0--
A-2--2---0-2--2------
E------2------------- 4 Times
Verse:
G--------------------
D---------------2-0--
A-2--2---0-2--2------
E------2------------- 4 Times
Chorus:
G---------------------------------------------
D-----3-4-3-4--------3-4-3-4------------------
A-2-2----------2---2----------5-5---5-7-7-5---
E---------------------------------5---------5-

G---------------------------------------------------
D-----3-4-3-4--------3-4-3-4--------2-2-2-0-2-3-2-0-
A-2-2----------2---2----------5-5-------------------
E---------------------------------5-----------------

G-----------------------------------------------
D-------3-4-3-4--------3-4-3-4------------------
A-2---2----------2---2----------5-5---5-7-7-5---
E-----------------------------------5---------5-

G------------------------------------
D-5-5---5-------------3-4-2---0-2----
A-----5-----------2-2-------2-----2--
E---------5-5-0-5--------------------
Play everything above again
The next verse
G----------------------------
D--------------------9-------
A------------------------7-5-
E-7---5-7---5-7--5-7---7-----

G------------------------------------
D--------------------9-7---7---------
A------------------------8---8-7-5---
E-7---5-7---5-7--5-7---------------7-
Then the Chorus
G--------------------
D---------------2-0--
A-2--2---0-2--2------
E------2------------- 3 Times
Then you hear "Uno Dos Tres Quarto Cinco Cinco Seis"
and play
G-----------
D---2--0----
A-2---------
E-----------
Then the final chorus.
G---------------------------------------------
D-----3-4-3-4--------3-4-3-4------------------
A-2-2----------2---2----------5-5---5-7-7-5---
E---------------------------------5---------5-

G---------------------------------------------------
D-----3-4-3-4--------3-4-3-4--------2-2-2-0-2-3-2-0-
A-2-2----------2---2----------5-5-------------------
E---------------------------------5-----------------

G-----------------------------------------------
D-------3-4-3-4--------3-4-3-4------------------
A-2---2----------2---2----------5-5---5-7-7-5---
E-----------------------------------5---------5-

G--------------------------------------------------
D-5-5---5----------5-5---5---------5-5---5---------
A-----5----------------5---------------5-----------
E---------5-5-0-5----------5-5-0-5---------5-5-0-5-

G--------------------
D-----3-4-2---0-2----
A-2-2-------2-----2--
E--------------------
Comments