Offspring - Out On Patrol Chords & Tabs

 

Out On Patrol Chords & Tabs

Offspring Chords & Tabs

Version: 2 Type: Tab 0 ratings
1 star 2 stars 3 stars 4 stars 5 stars
comments

Out On Patrol Tab

Album: The Offspring
Year: 1989
Track: 3
Title: Out on Patrol


# intro #   X 2  (second time without the brackets)
E--------------------------------------------------------------------------|
B--------------------------------------------------------------------------|
G--(9--9--9--9)--9-9-9--7-7-7----------------------------------------------|
D--(9--9--9--9)--9-9-9--7-7-7--7-7-7--7-7-8-7--5-5-5--7-7-7--9-9-9-8-8-9---|
A--(7--7--7--7)--7-7-7--5-5-5--7-7-7--7-7-8-7--5-5-5--7-7-7--9-9-9-8-8-9---|
E------------------------------5-5-5--5-5-6-5--3-3-3--5-5-5--7-7-7-6-6-7---|

# verse with solo #
E---------------------------------------------0-2-2-2-1-1-2---|
B---------------------------------------------0-0-0-0-0-0-0---|
G---9-9-9--7-7-7----------------------------------------------|
D---9-9-9--7-7-7--7-7-7--7-7-8-7--5-5-5--7-7------------------|
A---7-7-7--5-5-5--7-7-7--7-7-8-7--5-5-5--7-7------------------|
E-----------------5-5-5--5-5-6-5--3-3-3--5-5------------------|
    \____________________palm-mute_________/
[ Tab from: http://www.guitartabs.cc/tabs/o/offspring/out_on_patrol_tab_ver_2.html ]
# verse #
E-------------------------------------------------------------|
B-------------------------------------------------------------|
G---9-9-9--7-7-7----------------------------------------------|
D---9-9-9--7-7-7--7-7-7--7-7-8-7--5-5-5--7-7-7--9-9-9-8-8-9---|
A---7-7-7--5-5-5--7-7-7--7-7-8-7--5-5-5--7-7-7--9-9-9-8-8-9---|
E-----------------5-5-5--5-5-6-5--3-3-3--5-5-5--7-7-7-6-6-7---|
    \______________________palm-mute______________________/

Play intro without the brackets

# bridge #
E---1-1-1--3-3-3--0-0-0-0-0-0-0---1-1-1--3-3-3--0--0--->
B---0-0-0--0-0-0--0-0-0-0-0-0-0---0-0-0--0-0-0--0------>
G------------------------------------------------------>
D------------------------------------------------------>
A------------------------------------------------------>
E------------------------------------------------------>

E---1-1-1--3-3-3--0-0-0-0-0-0-0---1-1-1--3-3-3---|
B---0-0-0--0-0-0--0-0-0-0-0-0-0---0-0-0--0-0-0---|
G------------------------------------------------|
D------------------------------------------------|
A------------------------------------------------|
E------------------------------------------------|

Play the both verses and then the intro without the brackets. Play bridge.

# end of second bridge # (12-string-acoustic-guitar at the background)
E---0---------------------------|
B---0---------------------------|
G-------------------------------|
D-------3-2---3-2---3-2---3-2---|
A-------------------------------|
E-------------------------------|

->Play intro a couple of times.

# outro #
E-----------------------|
B-----------------------|
G---9-9-9-9---9-9-9-9---|
D---9-9-9-9---9-9-9-9---|
A---7-7-7-7---7-7-7-7---|
E-----------------------|

Comments