Offspring - Out On Patrol Chords & Tabs

 

Out On Patrol Chords & Tabs

Offspring Chords & Tabs

Version: 1 Type: Bass Tab 0 ratings
1 star 2 stars 3 stars 4 stars 5 stars
comments

Out On Patrol Bass Tab

Song: Out on patrol
Artist: The Offspring
Album: The Offspring (1.1.1990)
Tabber: Alien
Email: conspiracy.of.smash@gmail.com

intro  X4 
G---------------------|
D---2-22-22-2-22-22---|
A---------------------|
E---------------------|

main  X6  
G|---------------------------------------------------------------------------------|
D|-2-2-2-2-2-----------------------------------------------------------------------|
A|-----------5-5-5-5-5--0-0-0-0-0--2-3-2-------------3-3-3-3-3--5-5-5-5-5--0-0-2-2-|
E|---------------------------------------3-0-0-0-0-0-------------------------------|

bridge                                             
G--------------------------------------------------------------->
D--------------------------------------------------------------->
A-3-3-3-3-3-----5-5-5-5-5--7-(10x)-3-3-3-3-3--5-5-5-5-5--------->
E-------------------------------------------------------0-(10x)->

>----------------------------------------------------|
>-----------------------------------------------7\\\-|
>-3-3-3-3-3--5-5-5-5-5--7-(10x)-3-3-3-3-3---5-5------|
>----------------------------------------------------|
                                                  
G|---------------------------------------------------------------------------------|
D|-2-2-2-2-2-----------------------------------------------------------------------|
A|-----------5-5-5-5-5--0-0-0-0-0--2-3-2-------------3-3-3-3-3--5-5-5-5-5--0-0-2-2-|
E|---------------------------------------3-0-0-0-0-0-------------------------------|

G|---------------------------------------------------------------------------------|
D|-2-2-2-2-2-----------------------------------------------------------------------|
A|-----------5-5-5-5-5--0-0-0-0-0--2-3-2-------------3-3-3-3-3--5-5-5-5-5--0-0-2-2-|
E|---------------------------------------3-0-0-0-0-0-------------------------------|

G|---------------------------------------------------------------------------------|
D|-2-2-2-2-2-----------------------------------------------------------------------|
A|-----------5-5-5-5-5--0-0-0-0-0--2-3-2-------------3-3-3-3-3--5-5-5-5-5--0-0-2-2-|
E|---------------------------------------3-0-0-0-0-0-------------------------------|
[ Tab from: http://www.guitartabs.cc/tabs/o/offspring/out_on_patrol_btab.html ]
G|---------------------------------------------------------------------------------|
D|-2-2-2-2-2-----------------------------------------------------------------------|
A|-----------5-5-5-5-5--0-0-0-0-0--2-3-2-------------3-3-3-3-3--5-5-5-5-5--0-0-2-2-|
E|---------------------------------------3-0-0-0-0-0-------------------------------|

bridge 2                                             

G|-------------------------------------------------------------------------|
D|-------------------------------------------------------------------------|
A|-3-3-3-3-3--5-5-5-5-5--7-(10x)--3-3-3-3-3--5-5-5-5-5---------------------|
E|-----------------------------------------------------0-0-0-0-0-0-0-0-0-0-|

bridge
(same as bridge 2, just you play the 0 on the E string 5-times)

G|---------------------------------------------------------------------------------|
D|-2-2-2-2-2-----------------------------------------------------------------------|
A|-----------5-5-5-5-5--0-0-0-0-0--2-3-2-------------3-3-3-3-3--5-5-5-5-5--0-0-2-2-|
E|---------------------------------------3-0-0-0-0-0-------------------------------|

G|---------------------------------------------------------------------------------|
D|-2-2-2-2-2-----------------------------------------------------------------------|
A|-----------5-5-5-5-5--0-0-0-0-0--2-3-2-------------3-3-3-3-3--5-5-5-5-5--0-0-2-2-|
E|---------------------------------------3-0-0-0-0-0-------------------------------|

G|---------------------------------------------------------------------------------|
D|-2-2-2-2-2-----------------------------------------------------------------------|
A|-----------5-5-5-5-5--0-0-0-0-0--2-3-2-------------3-3-3-3-3--5-5-5-5-5--0-0-2-2-|
E|---------------------------------------3-0-0-0-0-0-------------------------------|

G|---------------------------------------------------------------------------------|
D|-2-2-2-2-2-----------------------------------------------------------------------|
A|-----------5-5-5-5-5--0-0-0-0-0--2-3-2-------------3-3-3-3-3--5-5-5-5-5--0-0-2-2-|
E|---------------------------------------3-0-0-0-0-0-------------------------------|

outro 
G---------------------------|
D---2-2-2-2-------2-2-2-2---|
A---------------------------|
E---------------------------|

Awsome song.
Comments