Offspring - Original Prankster Chords & Tabs

 

Original Prankster Chords & Tabs

Offspring Chords & Tabs

Version: 8 Type: Tab 0 ratings
1 star 2 stars 3 stars 4 stars 5 stars
comments

Original Prankster Tab

The Offspring,Original Prankster.
Tabbed by Ryan Schin,jaxjagman@aol.com.
  
E)---------------
B)---------------
G)---------------
D)---------------
A)---------------
e)--5-5-8-5-5----

E)-----------------
B)-----------------
G)-----------------
D)----------7------
A)-----------------
e)--5-5-8-5---5-8-5

E)-----------------
B)-----------------
G)-----------------
D)-----------------
A)-------------5---
e)--5-5-8-5-5------
[ Tab from: http://www.guitartabs.cc/tabs/o/offspring/original_prankster_tab_ver_8.html ]
E)------------------------------------
B)------------------------------------
G)------------------------------------
D)-----------7------------------------
A)-------------------5-5------5-------
e)--5-5-8-5-----5-5--------8------5---
       Repeat 3 times
E)---------------------------------------
B)---------------------------------------
G)---------------------------------------
D)------------7--------------------------
A)-----------------6-5--5-------5--------
e)--5-5-8-5------5----------8--------5---


I still have to figure out the rest of the song
  Hope you enjoy the tabs!! 

:: Ultimate Guitar Archive :: 
http://www.ultimate-guitar.com 
Comments